  0
SECTION
  2
HEADER
  9
$ACADVER
  1
AC1015
  9
$ACADMAINTVER
 70
     6
  9
$DWGCODEPAGE
  3
ANSI_1250
  9
$INSBASE
 10
0.0
 20
0.0
 30
0.0
  9
$EXTMIN
 10
0.0
 20
0.0
 30
0.0
  9
$EXTMAX
 10
20000.0
 20
10000.0
 30
0.0
  9
$LIMMIN
 10
0.0
 20
0.0
  9
$LIMMAX
 10
20000.0
 20
10000.0
  9
$ORTHOMODE
 70
     0
  9
$REGENMODE
 70
     1
  9
$FILLMODE
 70
     1
  9
$QTEXTMODE
 70
     0
  9
$MIRRTEXT
 70
     1
  9
$LTSCALE
 40
1.0
  9
$ATTMODE
 70
     1
  9
$TEXTSIZE
 40
2.0
  9
$TRACEWID
 40
1.0
  9
$TEXTSTYLE
  7
STANDARD
  9
$CLAYER
  8
0
  9
$CELTYPE
  6
ByLayer
  9
$CECOLOR
 62
   256
  9
$CELTSCALE
 40
1.0
  9
$DISPSILH
 70
     0
  9
$DIMSCALE
 40
1.0
  9
$DIMASZ
 40
2.0
  9
$DIMEXO
 40
1.0
  9
$DIMDLI
 40
3.75
  9
$DIMRND
 40
0.0
  9
$DIMDLE
 40
0.0
  9
$DIMEXE
 40
1.0
  9
$DIMTP
 40
0.0
  9
$DIMTM
 40
0.0
  9
$DIMTXT
 40
2.0
  9
$DIMCEN
 40
2.5
  9
$DIMTSZ
 40
0.0
  9
$DIMTOL
 70
     0
  9
$DIMLIM
 70
     0
  9
$DIMTIH
 70
     1
  9
$DIMTOH
 70
     1
  9
$DIMSE1
 70
     0
  9
$DIMSE2
 70
     0
  9
$DIMTAD
 70
     1
  9
$DIMZIN
 70
     0
  9
$DIMBLK
  1

  9
$DIMASO
 70
     1
  9
$DIMSHO
 70
     1
  9
$DIMPOST
  1

  9
$DIMAPOST
  1

  9
$DIMALT
 70
     0
  9
$DIMALTD
 70
     3
  9
$DIMALTF
 40
0.0393700787
  9
$DIMLFAC
 40
1.0
  9
$DIMTOFL
 70
     1
  9
$DIMTVP
 40
0.0
  9
$DIMTIX
 70
     0
  9
$DIMSOXD
 70
     0
  9
$DIMSAH
 70
     0
  9
$DIMBLK1
  1

  9
$DIMBLK2
  1

  9
$DIMSTYLE
  2
ISO-25
  9
$DIMCLRD
 70
     0
  9
$DIMCLRE
 70
     0
  9
$DIMCLRT
 70
     0
  9
$DIMTFAC
 40
1.0
  9
$DIMGAP
 40
1.524
  9
$DIMJUST
 70
     0
  9
$DIMSD1
 70
     0
  9
$DIMSD2
 70
     0
  9
$DIMTOLJ
 70
     0
  9
$DIMTZIN
 70
     0
  9
$DIMALTZ
 70
     0
  9
$DIMALTTZ
 70
     0
  9
$DIMUPT
 70
     0
  9
$DIMDEC
 70
     2
  9
$DIMTDEC
 70
     0
  9
$DIMALTU
 70
     2
  9
$DIMALTTD
 70
     3
  9
$DIMTXSTY
  7
STANDARD
  9
$DIMAUNIT
 70
     0
  9
$DIMADEC
 70
     2
  9
$DIMALTRND
 40
0.0
  9
$DIMAZIN
 70
     0
  9
$DIMDSEP
 70
    44
  9
$DIMATFIT
 70
     3
  9
$DIMFRAC
 70
     0
  9
$DIMLDRBLK
  1

  9
$DIMLUNIT
 70
     2
  9
$DIMLWD
 70
    -2
  9
$DIMLWE
 70
    -2
  9
$DIMTMOVE
 70
     0
  9
$LUNITS
 70
     2
  9
$LUPREC
 70
     3
  9
$SKETCHINC
 40
1.0
  9
$FILLETRAD
 40
10.0
  9
$AUNITS
 70
     0
  9
$AUPREC
 70
     2
  9
$MENU
  1
.
  9
$ELEVATION
 40
0.0
  9
$PELEVATION
 40
0.0
  9
$THICKNESS
 40
0.0
  9
$LIMCHECK
 70
     0
  9
$CHAMFERA
 40
0.0
  9
$CHAMFERB
 40
0.0
  9
$CHAMFERC
 40
0.0
  9
$CHAMFERD
 40
0.0
  9
$SKPOLY
 70
     0
  9
$TDCREATE
 40
2460963.453788172
  9
$TDUCREATE
 40
2460963.370454838
  9
$TDUPDATE
 40
2460963.453789109
  9
$TDUUPDATE
 40
2460963.370455775
  9
$TDINDWG
 40
0.0000000116
  9
$TDUSRTIMER
 40
0.0000000116
  9
$USRTIMER
 70
     1
  9
$ANGBASE
 50
0.0
  9
$ANGDIR
 70
     0
  9
$PDMODE
 70
     0
  9
$PDSIZE
 40
-1.0
  9
$PLINEWID
 40
0.0
  9
$SPLFRAME
 70
     0
  9
$SPLINETYPE
 70
     6
  9
$SPLINESEGS
 70
     8
  9
$HANDSEED
  5
29A
  9
$SURFTAB1
 70
     6
  9
$SURFTAB2
 70
     6
  9
$SURFTYPE
 70
     6
  9
$SURFU
 70
     6
  9
$SURFV
 70
     6
  9
$UCSBASE
  2

  9
$UCSNAME
  2

  9
$UCSORG
 10
0.0
 20
0.0
 30
0.0
  9
$UCSXDIR
 10
1.0
 20
0.0
 30
0.0
  9
$UCSYDIR
 10
0.0
 20
1.0
 30
0.0
  9
$UCSORTHOREF
  2

  9
$UCSORTHOVIEW
 70
     0
  9
$UCSORGTOP
 10
0.0
 20
0.0
 30
0.0
  9
$UCSORGBOTTOM
 10
0.0
 20
0.0
 30
0.0
  9
$UCSORGLEFT
 10
0.0
 20
0.0
 30
0.0
  9
$UCSORGRIGHT
 10
0.0
 20
0.0
 30
0.0
  9
$UCSORGFRONT
 10
0.0
 20
0.0
 30
0.0
  9
$UCSORGBACK
 10
0.0
 20
0.0
 30
0.0
  9
$PUCSBASE
  2

  9
$PUCSNAME
  2

  9
$PUCSORG
 10
0.0
 20
0.0
 30
0.0
  9
$PUCSXDIR
 10
1.0
 20
0.0
 30
0.0
  9
$PUCSYDIR
 10
0.0
 20
1.0
 30
0.0
  9
$PUCSORTHOREF
  2

  9
$PUCSORTHOVIEW
 70
     0
  9
$PUCSORGTOP
 10
0.0
 20
0.0
 30
0.0
  9
$PUCSORGBOTTOM
 10
0.0
 20
0.0
 30
0.0
  9
$PUCSORGLEFT
 10
0.0
 20
0.0
 30
0.0
  9
$PUCSORGRIGHT
 10
0.0
 20
0.0
 30
0.0
  9
$PUCSORGFRONT
 10
0.0
 20
0.0
 30
0.0
  9
$PUCSORGBACK
 10
0.0
 20
0.0
 30
0.0
  9
$USERI1
 70
     0
  9
$USERI2
 70
     0
  9
$USERI3
 70
     0
  9
$USERI4
 70
     0
  9
$USERI5
 70
     0
  9
$USERR1
 40
0.0
  9
$USERR2
 40
0.0
  9
$USERR3
 40
0.0
  9
$USERR4
 40
0.0
  9
$USERR5
 40
0.0
  9
$WORLDVIEW
 70
     1
  9
$SHADEDGE
 70
     3
  9
$SHADEDIF
 70
    70
  9
$TILEMODE
 70
     1
  9
$MAXACTVP
 70
    64
  9
$PINSBASE
 10
0.0
 20
0.0
 30
0.0
  9
$PLIMCHECK
 70
     0
  9
$PEXTMIN
 10
1.0000000000E+20
 20
1.0000000000E+20
 30
1.0000000000E+20
  9
$PEXTMAX
 10
-1.0000000000E+20
 20
-1.0000000000E+20
 30
-1.0000000000E+20
  9
$PLIMMIN
 10
0.0
 20
0.0
  9
$PLIMMAX
 10
420.0
 20
297.0
  9
$UNITMODE
 70
     0
  9
$VISRETAIN
 70
     1
  9
$PLINEGEN
 70
     0
  9
$PSLTSCALE
 70
     1
  9
$TREEDEPTH
 70
  3020
  9
$CMLSTYLE
  2
Standard
  9
$CMLJUST
 70
     0
  9
$CMLSCALE
 40
20.0
  9
$PROXYGRAPHICS
 70
     1
  9
$MEASUREMENT
 70
     1
  9
$CELWEIGHT
370
    -1
  9
$ENDCAPS
280
     0
  9
$JOINSTYLE
280
     0
  9
$LWDISPLAY
290
     1
  9
$INSUNITS
 70
     4
  9
$HYPERLINKBASE
  1

  9
$STYLESHEET
  1

  9
$XEDIT
290
     1
  9
$CEPSNTYPE
380
     0
  9
$PSTYLEMODE
290
     1
  9
$FINGERPRINTGUID
  2
{c44450f3-51f8-4d70-be22-130fe0f9ae8f}
  9
$VERSIONGUID
  2
{FAEB1C32-E019-11D5-929B-00C0DF256EC4}
  9
$EXTNAMES
290
     1
  9
$PSVPSCALE
 40
0.0
  9
$OLESTARTUP
290
     0
  0
ENDSEC
  0
SECTION
  2
CLASSES
  0
CLASS
  1
ACDBDICTIONARYWDFLT
  2
AcDbDictionaryWithDefault
  3
ObjectDBX Classes
 90
        0
280
     0
281
     0
  0
CLASS
  1
VISUALSTYLE
  2
AcDbVisualStyle
  3
ObjectDBX Classes
 90
     4095
280
     0
281
     0
  0
CLASS
  1
MATERIAL
  2
AcDbMaterial
  3
ObjectDBX Classes
 90
     1153
280
     0
281
     0
  0
CLASS
  1
SCALE
  2
AcDbScale
  3
ObjectDBX Classes
 90
     1153
280
     0
281
     0
  0
CLASS
  1
TABLESTYLE
  2
AcDbTableStyle
  3
ObjectDBX Classes
 90
     4095
280
     0
281
     0
  0
CLASS
  1
MLEADERSTYLE
  2
AcDbMLeaderStyle
  3
ACDB_MLEADERSTYLE_CLASS
 90
     4095
280
     0
281
     0
  0
CLASS
  1
SUN
  2
AcDbSun
  3
SCENEOE
 90
     1153
280
     0
281
     0
  0
CLASS
  1
ACDBPLACEHOLDER
  2
AcDbPlaceHolder
  3
ObjectDBX Classes
 90
        0
280
     0
281
     0
  0
CLASS
  1
LAYOUT
  2
AcDbLayout
  3
ObjectDBX Classes
 90
        0
280
     0
281
     0
  0
ENDSEC
  0
SECTION
  2
TABLES
  0
TABLE
  2
VPORT
  5
8
330
0
100
AcDbSymbolTable
 70
     1
  0
VPORT
  5
29
330
8
100
AcDbSymbolTableRecord
100
AcDbViewportTableRecord
  2
*Active
 70
     0
 10
0.0
 20
0.0
 11
1.0
 21
1.0
 12
10000.0
 22
5000.0
 13
0.0
 23
0.0
 14
10.0
 24
10.0
 15
10.0
 25
10.0
 16
0.0
 26
0.0
 36
1.0
 17
0.0
 27
0.0
 37
0.0
 40
10000.0
 41
2.0
 42
50.0
 43
0.0
 44
0.0
 50
0.0
 51
0.0
 71
     0
 72
  2000
 73
     1
 74
     3
 75
     0
 76
     0
 77
     0
 78
     0
281
     0
 65
     1
110
0.0
120
0.0
130
0.0
111
1.0
121
0.0
131
0.0
112
0.0
122
1.0
132
0.0
 79
     0
146
0.0
  0
ENDTAB
  0
TABLE
  2
LTYPE
  5
5
330
0
100
AcDbSymbolTable
 70
    10
  0
LTYPE
  5
14
330
5
100
AcDbSymbolTableRecord
100
AcDbLinetypeTableRecord
  2
ByBlock
 70
     0
  3

 72
    65
 73
     0
 40
0.0
  0
LTYPE
  5
15
330
5
100
AcDbSymbolTableRecord
100
AcDbLinetypeTableRecord
  2
ByLayer
 70
     0
  3

 72
    65
 73
     0
 40
0.0
  0
LTYPE
  5
16
330
5
100
AcDbSymbolTableRecord
100
AcDbLinetypeTableRecord
  2
Continuous
 70
     0
  3
Solid line
 72
    65
 73
     0
 40
0.0
  0
LTYPE
  5
6E
330
5
100
AcDbSymbolTableRecord
100
AcDbLinetypeTableRecord
  2
SLD-Plná
 70
     0
  3
SolidWorks Line Style
 72
    65
 73
     0
 40
0.0
  0
LTYPE
  5
6F
330
5
100
AcDbSymbolTableRecord
100
AcDbLinetypeTableRecord
  2
SLD-Čárkovaná
 70
     0
  3
SolidWorks Line Style
 72
    65
 73
     2
 40
1.905
 49
1.27
 74
     0
 49
-0.635
 74
     0
  0
LTYPE
  5
70
330
5
100
AcDbSymbolTableRecord
100
AcDbLinetypeTableRecord
  2
SLD-Dvojitě-čerchovaná
 70
     0
  3
SolidWorks Line Style
 72
    65
 73
     6
 40
12.7
 49
6.35
 74
     0
 49
-1.27
 74
     0
 49
1.27
 74
     0
 49
-1.27
 74
     0
 49
1.27
 74
     0
 49
-1.27
 74
     0
  0
LTYPE
  5
71
330
5
100
AcDbSymbolTableRecord
100
AcDbLinetypeTableRecord
  2
SLD-Čerchovaná
 70
     0
  3
SolidWorks Line Style
 72
    65
 73
     4
 40
10.16
 49
6.35
 74
     0
 49
-1.27
 74
     0
 49
1.27
 74
     0
 49
-1.27
 74
     0
  0
LTYPE
  5
72
330
5
100
AcDbSymbolTableRecord
100
AcDbLinetypeTableRecord
  2
SLD-Osa
 70
     0
  3
SolidWorks Line Style
 72
    65
 73
     4
 40
19.05
 49
15.24
 74
     0
 49
-1.27
 74
     0
 49
1.27
 74
     0
 49
-1.27
 74
     0
  0
LTYPE
  5
73
330
5
100
AcDbSymbolTableRecord
100
AcDbLinetypeTableRecord
  2
SLD-Tečkovaná
 70
     0
  3
SolidWorks Line Style
 72
    65
 73
     2
 40
0.635
 49
0.0
 74
     0
 49
-0.635
 74
     0
  0
LTYPE
  5
74
330
5
100
AcDbSymbolTableRecord
100
AcDbLinetypeTableRecord
  2
SLD-Hrubá-tenká-čerchovaná
 70
     0
  3
SolidWorks Line Style
 72
    65
 73
     4
 40
10.16
 49
6.35
 74
     0
 49
-1.27
 74
     0
 49
1.27
 74
     0
 49
-1.27
 74
     0
  0
LTYPE
  5
75
330
5
100
AcDbSymbolTableRecord
100
AcDbLinetypeTableRecord
  2
SLD-Řez-1
 70
     0
  3
SolidWorks Line Style
 72
    65
 73
     4
 40
8.128
 49
5.08
 74
     0
 49
-1.016
 74
     0
 49
1.016
 74
     0
 49
-1.016
 74
     0
  0
LTYPE
  5
76
330
5
100
AcDbSymbolTableRecord
100
AcDbLinetypeTableRecord
  2
SLD-Řez-2
 70
     0
  3
SolidWorks Line Style
 72
    65
 73
     2
 40
5080.0
 49
0.0
 74
     0
 49
-5080.0
 74
     0
  0
ENDTAB
  0
TABLE
  2
LAYER
  5
2
330
0
100
AcDbSymbolTable
 70
    13
  0
LAYER
  5
10
330
2
100
AcDbSymbolTableRecord
100
AcDbLayerTableRecord
  2
0
 70
     0
 62
     7
  6
Continuous
370
    -3
390
F
  0
LAYER
  5
77
330
2
100
AcDbSymbolTableRecord
100
AcDbLayerTableRecord
  2
FORMAT
 70
     0
 62
     7
  6
SLD-Plná
370
    -3
390
F
  0
LAYER
  5
78
330
2
100
AcDbSymbolTableRecord
100
AcDbLayerTableRecord
  2
OSA
 70
     0
 62
     7
  6
SLD-Hrubá-tenká-čerchovaná
370
    -3
390
F
  0
LAYER
  5
79
330
2
100
AcDbSymbolTableRecord
100
AcDbLayerTableRecord
  2
0_35
 70
     0
 62
     7
  6
SLD-Plná
370
    35
390
F
  0
LAYER
  5
7A
330
2
100
AcDbSymbolTableRecord
100
AcDbLayerTableRecord
  2
0_5
 70
     0
 62
     7
  6
SLD-Plná
370
    50
390
F
  0
LAYER
  5
7B
330
2
100
AcDbSymbolTableRecord
100
AcDbLayerTableRecord
  2
0_25
 70
     0
 62
     7
  6
SLD-Plná
370
    25
390
F
  0
LAYER
  5
7C
330
2
100
AcDbSymbolTableRecord
100
AcDbLayerTableRecord
  2
0_18
 70
     0
 62
     7
  6
SLD-Plná
370
    -3
390
F
  0
LAYER
  5
7D
330
2
100
AcDbSymbolTableRecord
100
AcDbLayerTableRecord
  2
SLD-0
 70
     0
 62
   179
  6
SLD-Plná
370
    -3
390
F
  0
LAYER
  5
7E
330
2
100
AcDbSymbolTableRecord
100
AcDbLayerTableRecord
  2
KOTY
 70
     0
 62
     7
  6
SLD-Plná
370
    -3
390
F
  0
LAYER
  5
7F
330
2
100
AcDbSymbolTableRecord
100
AcDbLayerTableRecord
  2
SILNA
 70
     0
 62
   179
  6
SLD-Plná
370
    -3
390
F
  0
LAYER
  5
80
330
2
100
AcDbSymbolTableRecord
100
AcDbLayerTableRecord
  2
0_18_1
 70
     0
 62
   179
  6
SLD-Plná
370
    -3
390
F
  0
LAYER
  5
81
330
2
100
AcDbSymbolTableRecord
100
AcDbLayerTableRecord
  2
0_35_1
 70
     0
 62
   179
  6
SLD-Plná
370
    35
390
F
  0
LAYER
  5
82
330
2
100
AcDbSymbolTableRecord
100
AcDbLayerTableRecord
  2
0_5_1
 70
     0
 62
   179
  6
SLD-Plná
370
    50
390
F
  0
ENDTAB
  0
TABLE
  2
STYLE
  5
3
330
0
100
AcDbSymbolTable
 70
     1
  0
STYLE
  5
11
330
3
100
AcDbSymbolTableRecord
100
AcDbTextStyleTableRecord
  2
STANDARD
 70
     0
 40
0.0
 41
1.0
 50
0.0
 71
     0
 42
2.0
  3
SWISOP1.TTF
  4

1001
ACAD
1000
SWISOP1
1071
        2
  0
ENDTAB
  0
TABLE
  2
VIEW
  5
6
330
0
100
AcDbSymbolTable
 70
     0
  0
ENDTAB
  0
TABLE
  2
UCS
  5
7
330
0
100
AcDbSymbolTable
 70
     0
  0
ENDTAB
  0
TABLE
  2
APPID
  5
9
330
0
100
AcDbSymbolTable
 70
     1
  0
APPID
  5
12
330
9
100
AcDbSymbolTableRecord
100
AcDbRegAppTableRecord
  2
ACAD
 70
     0
  0
ENDTAB
  0
TABLE
  2
DIMSTYLE
  5
A
330
0
100
AcDbSymbolTable
 70
     1
100
AcDbDimStyleTable
  0
DIMSTYLE
105
27
330
A
100
AcDbSymbolTableRecord
100
AcDbDimStyleTableRecord
  2
ISO-25
 70
     0
 41
2.5
 42
0.625
 43
3.75
 44
1.25
 73
     0
 74
     0
 77
     1
 78
     8
140
2.5
141
2.5
143
0.0393700787
147
0.625
171
     3
172
     1
178
     0
271
     2
272
     2
274
     3
278
    44
283
     0
284
     8
340
11
  0
ENDTAB
  0
TABLE
  2
BLOCK_RECORD
  5
1
330
0
100
AcDbSymbolTable
 70
     1
  0
BLOCK_RECORD
  5
1F
330
1
100
AcDbSymbolTableRecord
100
AcDbBlockTableRecord
  2
*Model_Space
340
22
  0
BLOCK_RECORD
  5
1B
330
1
100
AcDbSymbolTableRecord
100
AcDbBlockTableRecord
  2
*Paper_Space
340
1E
  0
BLOCK_RECORD
  5
23
330
1
100
AcDbSymbolTableRecord
100
AcDbBlockTableRecord
  2
*Paper_Space0
340
26
  0
ENDTAB
  0
ENDSEC
  0
SECTION
  2
BLOCKS
  0
BLOCK
  5
20
330
1F
100
AcDbEntity
  8
0
100
AcDbBlockBegin
  2
*Model_Space
 70
     0
 10
0.0
 20
0.0
 30
0.0
  3
*Model_Space
  1

  0
ENDBLK
  5
21
330
1F
100
AcDbEntity
  8
0
100
AcDbBlockEnd
  0
BLOCK
  5
1C
330
1B
100
AcDbEntity
 67
     1
  8
0
100
AcDbBlockBegin
  2
*Paper_Space
 70
     0
 10
0.0
 20
0.0
 30
0.0
  3
*Paper_Space
  1

  0
ENDBLK
  5
1D
330
1B
100
AcDbEntity
 67
     1
  8
0
100
AcDbBlockEnd
  0
BLOCK
  5
24
330
23
100
AcDbEntity
  8
0
100
AcDbBlockBegin
  2
*Paper_Space0
 70
     0
 10
0.0
 20
0.0
 30
0.0
  3
*Paper_Space0
  1

  0
ENDBLK
  5
25
330
23
100
AcDbEntity
  8
0
100
AcDbBlockEnd
  0
ENDSEC
  0
SECTION
  2
ENTITIES
  0
LINE
  5
83
330
1F
100
AcDbEntity
  8
0
  6
SLD-Plná
 62
     7
370
    25
100
AcDbLine
 10
6922.098298321
 20
4799.6791576293
 30
0.0
 11
6922.1203954084
 21
4799.6791576293
 31
0.0
  0
LINE
  5
84
330
1F
100
AcDbEntity
  8
0
  6
SLD-Plná
 62
     7
370
    25
100
AcDbLine
 10
6973.2607205183
 20
4994.7133383283
 30
0.0
 11
6968.5305544125
 21
5012.5125955381
 31
0.0
  0
LINE
  5
85
330
1F
100
AcDbEntity
  8
0
  6
SLD-Plná
 62
     7
370
    25
100
AcDbLine
 10
6958.8660047733
 20
5009.9442341401
 30
0.0
 11
6963.5961708791
 21
4992.1449769302
 31
0.0
  0
SPLINE
  5
86
330
1F
100
AcDbEntity
  8
0
  6
SLD-Plná
 62
     7
370
    25
100
AcDbSpline
210
0.0
220
0.0
230
1.0
 70
     8
 71
     3
 72
    35
 73
    31
 74
     0
 42
0.00000001
 43
0.00000001
 40
0.0
 40
0.0
 40
0.0
 40
0.0
 40
0.0184792132530177
 40
0.0545347344091642
 40
0.0905737527584597
 40
0.1265687239533197
 40
0.1625074594380458
 40
0.1983831436269282
 40
0.2341976522322311
 40
0.2699662450014654
 40
0.3057189167014531
 40
0.3415009882831125
 40
0.3774013583985424
 40
0.4135552310370402
 40
0.4501525074718812
 40
0.487433438600615
 40
0.5256470619803244
 40
0.5649283685690095
 40
0.605076445541759
 40
0.6452785362416833
 40
0.6846583322851784
 40
0.7229758772395604
 40
0.7603803603311011
 40
0.7971380743531744
 40
0.8334892300388529
 40
0.869611502767335
 40
0.9056240840447064
 40
0.9416010422880644
 40
0.9775738236402564
 40
1.0
 40
1.0
 40
1.0
 40
1.0
 10
6921.809650672102
 20
4999.179157629274
 30
0.0
 10
6921.815225713584
 20
4999.695935318106
 30
0.0
 10
6921.831678438186
 20
5001.221018319373
 30
0.0
 10
6922.017212259455
 20
5003.744648499737
 30
0.0
 10
6922.435914627291
 20
5006.70604920239
 30
0.0
 10
6923.058900279388
 20
5009.582467562124
 30
0.0
 10
6923.873344737152
 20
5012.341209356011
 30
0.0
 10
6924.868125358206
 20
5014.951986740224
 30
0.0
 10
6926.028284597916
 20
5017.386844831812
 30
0.0
 10
6927.336862778887
 20
5019.620743064176
 30
0.0
 10
6928.774849896336
 20
5021.631928374322
 30
0.0
 10
6930.32212463703
 20
5023.402746539143
 30
0.0
 10
6931.958672288773
 20
5024.920119739263
 30
0.0
 10
6933.66642267335
 20
5026.175588984057
 30
0.0
 10
6935.431127553425
 20
5027.164263217525
 30
0.0
 10
6937.244119607362
 20
5027.882640194308
 30
0.0
 10
6939.102321265356
 20
5028.325026206047
 30
0.0
 10
6941.004057238435
 20
5028.479989635065
 30
0.0
 10
6942.937880502978
 20
5028.331201920816
 30
0.0
 10
6944.876442067852
 20
5027.867500437087
 30
0.0
 10
6946.783185718049
 20
5027.092997903821
 30
0.0
 10
6948.626472977478
 20
5026.024264354361
 30
0.0
 10
6950.386747181949
 20
5024.678997790741
 30
0.0
 10
6952.049893112491
 20
5023.072353161309
 30
0.0
 10
6953.602269868697
 20
5021.218537314799
 30
0.0
 10
6955.028615413319
 20
5019.133005786907
 30
0.0
 10
6956.314068083998
 20
5016.834781150164
 30
0.0
 10
6957.439095325912
 20
5014.343780338066
 30
0.0
 10
6958.281667539627
 20
5012.026176965505
 30
0.0
 10
6958.703871421969
 20
5010.521901192666
 30
0.0
 10
6958.86600477325
 20
5009.944234140083
 30
0.0
  0
SPLINE
  5
87
330
1F
100
AcDbEntity
  8
0
  6
SLD-Plná
 62
     7
370
    25
100
AcDbSpline
210
0.0
220
0.0
230
1.0
 70
     8
 71
     3
 72
    39
 73
    35
 74
     0
 42
0.00000001
 43
0.00000001
 40
0.0
 40
0.0
 40
0.0
 40
0.0
 40
0.0178212536119639
 40
0.0508440033926854
 40
0.0839181205026847
 40
0.1170218952632201
 40
0.1501309246608356
 40
0.1832088367041609
 40
0.2162059449823968
 40
0.2490598579393275
 40
0.2817024404407045
 40
0.3140719661870929
 40
0.3461280163950267
 40
0.3778642982401463
 40
0.4093146322567273
 40
0.4405501607708719
 40
0.4716691889164589
 40
0.5027600287119748
 40
0.5339204901368505
 40
0.5652491174136458
 40
0.5968184339328945
 40
0.6286670463231266
 40
0.6607980125686733
 40
0.693183968371094
 40
0.7257774716246702
 40
0.7585232272544399
 40
0.7913686070432261
 40
0.8242703131667943
 40
0.8571952577478505
 40
0.8901212070641954
 40
0.923041019873377
 40
0.9559542289723058
 40
0.9888649868167197
 40
1.0
 40
1.0
 40
1.0
 40
1.0
 10
6968.530554412471
 20
5012.51259553814
 30
0.0
 10
6968.364278711701
 20
5013.110508212484
 30
0.0
 10
6967.889894446809
 20
5014.816351959777
 30
0.0
 10
6966.934553544599
 20
5017.540780799117
 30
0.0
 10
6965.602688015751
 20
5020.61976698389
 30
0.0
 10
6964.060171441266
 20
5023.528680695197
 30
0.0
 10
6962.321242269616
 20
5026.243202709008
 30
0.0
 10
6960.397281731121
 20
5028.737797522412
 30
0.0
 10
6958.303675020394
 20
5030.988590527051
 30
0.0
 10
6956.058424751537
 20
5032.973260745718
 30
0.0
 10
6953.682654117927
 20
5034.672163424476
 30
0.0
 10
6951.200039046485
 20
5036.06932798024
 30
0.0
 10
6948.635895860656
 20
5037.153289129495
 30
0.0
 10
6946.015910023963
 20
5037.917349447769
 30
0.0
 10
6943.364899957668
 20
5038.359163660792
 30
0.0
 10
6940.705944024543
 20
5038.479775990404
 30
0.0
 10
6938.06070616263
 20
5038.282492032356
 30
0.0
 10
6935.449280317716
 20
5037.772211430796
 30
0.0
 10
6932.890191203323
 20
5036.95484415871
 30
0.0
 10
6930.400485360861
 20
5035.836689537212
 30
0.0
 10
6927.996873882311
 20
5034.424595602142
 30
0.0
 10
6925.696709028529
 20
5032.726907397552
 30
0.0
 10
6923.518063636113
 20
5030.754475241641
 30
0.0
 10
6921.479299194627
 20
5028.521425666579
 30
0.0
 10
6919.598297819532
 20
5026.045424895243
 30
0.0
 10
6917.891643954694
 20
5023.347388856323
 30
0.0
 10
6916.373995877198
 20
5020.450812067496
 30
0.0
 10
6915.057823014143
 20
5017.381040120926
 30
0.0
 10
6913.953270331117
 20
5014.16462116033
 30
0.0
 10
6913.06856193691
 20
5010.828679975057
 30
0.0
 10
6912.40894226445
 20
5007.400451866061
 30
0.0
 10
6911.981723981184
 20
5003.907470615424
 30
0.0
 10
6911.823354668609
 20
5001.155189306386
 30
0.0
 10
6911.812416022105
 20
4999.577904024234
 30
0.0
 10
6911.809650672103
 20
4999.179157629274
 30
0.0
  0
LINE
  5
88
330
1F
100
AcDbEntity
  8
0
  6
SLD-Plná
 62
     7
370
    25
100
AcDbLine
 10
6924.5596506721
 20
4804.1791576293
 30
0.0
 11
6923.8096506721
 21
4816.1791576293
 31
0.0
  0
LINE
  5
89
330
1F
100
AcDbEntity
  8
0
  6
SLD-Plná
 62
     7
370
    25
100
AcDbLine
 10
6909.8096506721
 20
4816.1791576293
 30
0.0
 11
6909.0688077566
 21
4804.325670981
 31
0.0
  0
LINE
  5
8A
330
1F
100
AcDbEntity
  8
0
  6
SLD-Plná
 62
     7
370
    25
100
AcDbLine
 10
6911.8096506721
 20
4999.1791576293
 30
0.0
 11
6911.8096506721
 21
4816.1791576293
 31
0.0
  0
LINE
  5
8B
330
1F
100
AcDbEntity
  8
0
  6
SLD-Plná
 62
     7
370
    25
100
AcDbLine
 10
6921.8096506721
 20
4816.1791576293
 30
0.0
 11
6921.8096506721
 21
4999.1791576293
 31
0.0
  0
LINE
  5
8C
330
1F
100
AcDbEntity
  8
0
  6
SLD-Plná
 62
     7
370
    25
100
AcDbLine
 10
6926.2579896882
 20
4766.6791576293
 30
0.0
 11
6926.2579896882
 21
4767.6791576293
 31
0.0
  0
LINE
  5
8D
330
1F
100
AcDbEntity
  8
0
  6
SLD-Plná
 62
     7
370
    25
100
AcDbLine
 10
6892.8521805887
 20
4767.6791576293
 30
0.0
 11
6892.8521805887
 21
4766.6791576293
 31
0.0
  0
SPLINE
  5
8E
330
1F
100
AcDbEntity
  8
0
  6
SLD-Plná
 62
     7
370
    25
100
AcDbSpline
210
0.0
220
0.0
230
1.0
 70
     8
 71
     3
 72
    20
 73
    16
 74
     0
 42
0.00000001
 43
0.00000001
 40
0.0
 40
0.0
 40
0.0
 40
0.0
 40
0.1072377563653068
 40
0.1974879306025088
 40
0.2705483489551734
 40
0.3284652540896815
 40
0.3752795698358695
 40
0.4115144553722746
 40
0.4464744374546464
 40
0.4972929823146589
 40
0.5639882173468567
 40
0.6465692755201599
 40
0.781407755086569
 40
0.944551184380396
 40
0.9999999999999999
 40
0.9999999999999999
 40
0.9999999999999999
 40
0.9999999999999999
 10
6926.25788530947
 20
4767.679157629274
 30
0.0
 10
6926.060197941313
 20
4768.920710830807
 30
0.0
 10
6925.696138951579
 20
4771.20714222227
 30
0.0
 10
6925.350394604307
 20
4774.35524081789
 30
0.0
 10
6925.165522838705
 20
4776.956781193898
 30
0.0
 10
6925.090167997848
 20
4779.077683358877
 30
0.0
 10
6925.052796597404
 20
4780.762820539341
 30
0.0
 10
6925.029149241
 20
4782.188267395245
 30
0.0
 10
6925.009409820742
 20
4783.672263723586
 30
0.0
 10
6924.994031472876
 20
4785.525925306731
 30
0.0
 10
6924.987549974289
 20
4787.959610142269
 30
0.0
 10
6924.998899873105
 20
4791.414915754375
 30
0.0
 10
6925.046491370426
 20
4796.042531618478
 30
0.0
 10
6925.115092888807
 20
4800.339563750718
 30
0.0
 10
6925.167143843374
 20
4802.994801424191
 30
0.0
 10
6925.180347256805
 20
4803.668337597631
 30
0.0
  0
ARC
  5
8F
330
1F
100
AcDbEntity
  8
0
  6
SLD-Plná
 62
     7
370
    25
100
AcDbCircle
 10
6924.6830323316
 20
4803.6791576449
 30
0.0
 40
0.4999999843974531
100
AcDbArc
 50
0.9584825081
 51
90.0393019245
  0
LINE
  5
90
330
1F
100
AcDbEntity
  8
0
  6
SLD-Plná
 62
     7
370
    25
100
AcDbLine
 10
6887.0697074183
 20
4804.9901999548
 30
0.0
 11
6892.8521805918
 21
4767.6791576298
 31
0.0
  0
LINE
  5
91
330
1F
100
AcDbEntity
  8
0
  6
SLD-Plná
 62
     7
370
    25
100
AcDbLine
 10
6911.8096506721
 20
4817.1383056245
 30
0.0
 11
6910.7211842204
 21
4824.1615665424
 31
0.0
  0
LINE
  5
92
330
1F
100
AcDbEntity
  8
0
  6
SLD-Plná
 62
     7
370
    25
100
AcDbLine
 10
6885.0279149081
 20
4820.1796182697
 30
0.0
 11
6886.3149427228
 21
4811.8751527189
 31
0.0
  0
SPLINE
  5
93
330
1F
100
AcDbEntity
  8
0
  6
SLD-Plná
 62
     7
370
    25
100
AcDbSpline
210
0.0
220
0.0
230
1.0
 70
     8
 71
     3
 72
    12
 73
     8
 74
     0
 42
0.00000001
 43
0.00000001
 40
0.0
 40
0.0
 40
0.0
 40
0.0
 40
0.1323597467927819
 40
0.3056482381250011
 40
0.4978957895864382
 40
0.7627738958066297
 40
0.9999999999999999
 40
0.9999999999999999
 40
0.9999999999999999
 40
0.9999999999999999
 10
6910.678779518231
 20
4824.195600545272
 30
0.0
 10
6910.645714126276
 20
4824.349919704275
 30
0.0
 10
6910.569358746044
 20
4824.706277133187
 30
0.0
 10
6910.179982138139
 20
4825.063846827177
 30
0.0
 10
6909.713008316932
 20
4825.326736880255
 30
0.0
 10
6909.160646147438
 20
4825.505596624367
 30
0.0
 10
6908.638594820947
 20
4825.57583480897
 30
0.0
 10
6908.391944424865
 20
4825.6090198143
 30
0.0
  0
SPLINE
  5
94
330
1F
100
AcDbEntity
  8
0
  6
SLD-Plná
 62
     7
370
    25
100
AcDbSpline
210
0.0
220
0.0
230
1.0
 70
     8
 71
     3
 72
    11
 73
     7
 74
     0
 42
0.00000001
 43
0.00000001
 40
0.0
 40
0.0
 40
0.0
 40
0.0
 40
0.1615154881252155
 40
0.5388581665006725
 40
0.8969740701006705
 40
0.9999999999999999
 40
0.9999999999999999
 40
0.9999999999999999
 40
0.9999999999999999
 10
6885.573172161577
 20
4821.486022360636
 30
0.0
 10
6885.519540903653
 20
4821.444541257188
 30
0.0
 10
6885.34061291571
 20
4821.306149381538
 30
0.0
 10
6885.129951839192
 20
4820.963630394303
 30
0.0
 10
6884.957478023284
 20
4820.49216534461
 30
0.0
 10
6885.041721962658
 20
4820.242966480583
 30
0.0
 10
6885.060543309068
 20
4820.187291755735
 30
0.0
  0
ARC
  5
95
330
1F
100
AcDbEntity
  8
0
  6
SLD-Plná
 62
     7
370
    25
100
AcDbCircle
 10
6902.0481484501
 20
4795.2407096376
 30
0.0
 40
31.06753134593055
100
AcDbArc
 50
76.8729988925
 51
120.7462525068
  0
LINE
  5
96
330
1F
100
AcDbEntity
  8
0
  6
SLD-Plná
 62
     7
370
    25
100
AcDbLine
 10
6889.5423829985
 20
4807.3739661225
 30
0.0
 11
6889.6555642537
 21
4806.6436712342
 31
0.0
  0
LINE
  5
97
330
1F
100
AcDbEntity
  8
0
  6
SLD-Plná
 62
     7
370
    25
100
AcDbLine
 10
7208.1646665904
 20
4807.4025326016
 30
0.0
 11
7210.2582408138
 21
4815.3307807909
 31
0.0
  0
LINE
  5
98
330
1F
100
AcDbEntity
  8
0
  6
SLD-Plná
 62
     7
370
    25
100
AcDbLine
 10
7204.2107950776
 20
4802.2213222758
 30
0.0
 11
7204.2632516504
 21
4802.4199723754
 31
0.0
  0
SPLINE
  5
99
330
1F
100
AcDbEntity
  8
0
  6
SLD-Plná
 62
     7
370
    25
100
AcDbSpline
210
0.0
220
0.0
230
1.0
 70
     8
 71
     3
 72
    10
 73
     6
 74
     0
 42
0.00000001
 43
0.00000001
 40
0.0
 40
0.0
 40
0.0
 40
0.0
 40
0.0723406910658545
 40
0.5670060687521743
 40
1.0
 40
1.0
 40
1.0
 40
1.0
 10
7186.210012367044
 20
4823.218848712017
 30
0.0
 10
7186.174986200935
 20
4823.20562523281
 30
0.0
 10
7185.900451240641
 20
4823.101979651746
 30
0.0
 10
7185.51503157903
 20
4822.771824275274
 30
0.0
 10
7185.286009262054
 20
4822.339926621814
 30
0.0
 10
7185.179110886308
 20
4822.138334225699
 30
0.0
  0
SPLINE
  5
9A
330
1F
100
AcDbEntity
  8
0
  6
SLD-Plná
 62
     7
370
    25
100
AcDbSpline
210
0.0
220
0.0
230
1.0
 70
     8
 71
     3
 72
    10
 73
     6
 74
     0
 42
0.00000001
 43
0.00000001
 40
0.0
 40
0.0
 40
0.0
 40
0.0
 40
0.2408196631176693
 40
0.6708102980946705
 40
0.9999999999999999
 40
0.9999999999999999
 40
0.9999999999999999
 40
0.9999999999999999
 10
7210.222535135775
 20
4815.33258846286
 30
0.0
 10
7210.261627062607
 20
4815.46454090463
 30
0.0
 10
7210.370518781627
 20
4815.832098335997
 30
0.0
 10
7210.250719123588
 20
4816.395688243927
 30
0.0
 10
7210.049159312677
 20
4816.742785632262
 30
0.0
 10
7209.961760560567
 20
4816.893291223948
 30
0.0
  0
ARC
  5
9B
330
1F
100
AcDbEntity
  8
0
  6
SLD-Plná
 62
     7
370
    25
100
AcDbCircle
 10
7193.0908044679
 20
4801.2364347911
 30
0.0
 40
23.12500000000007
100
AcDbArc
 50
45.3298026252
 51
105.0858606631
  0
LINE
  5
9C
330
1F
100
AcDbEntity
  8
0
  6
SLD-Plná
 62
     7
370
    25
100
AcDbLine
 10
7169.8455765194
 20
4767.6791576293
 30
0.0
 11
7169.8455765194
 21
4766.6791576293
 31
0.0
  0
LINE
  5
9D
330
1F
100
AcDbEntity
  8
0
  6
SLD-Plná
 62
     7
370
    25
100
AcDbLine
 10
7204.0630909407
 20
4766.6791576293
 30
0.0
 11
7204.0630909407
 21
4767.6791576293
 31
0.0
  0
LINE
  5
9E
330
1F
100
AcDbEntity
  8
0
  6
SLD-Plná
 62
     7
370
    25
100
AcDbLine
 10
7170.2751525527
 20
4800.9837212376
 30
0.0
 11
7170.6546443767
 21
4800.1399369577
 31
0.0
  0
LINE
  5
9F
330
1F
100
AcDbEntity
  8
0
  6
SLD-Plná
 62
     7
370
    25
100
AcDbLine
 10
7181.5987268332
 20
4805.0620360208
 30
0.0
 11
7181.2192350092
 21
4805.9058203007
 31
0.0
  0
LWPOLYLINE
  5
A0
330
1F
100
AcDbEntity
  8
0
  6
SLD-Plná
 62
     7
370
    25
100
AcDbPolyline
 90
        3
 70
   128
 43
0.0
 10
7204.0636130582
 20
4767.6791576293
 10
7205.3086441455
 20
4787.9197391128
 10
7206.054263709
 20
4800.0275717963
  0
SPLINE
  5
A1
330
1F
100
AcDbEntity
  8
0
  6
SLD-Plná
 62
     7
370
    25
100
AcDbSpline
210
0.0
220
0.0
230
1.0
 70
     8
 71
     3
 72
    14
 73
    10
 74
     0
 42
0.00000001
 43
0.00000001
 40
0.0
 40
0.0
 40
0.0
 40
0.0
 40
0.1463003805444185
 40
0.2877873898603729
 40
0.394812761530315
 40
0.4966057988360935
 40
0.6313826871594284
 40
0.7992199110183548
 40
1.0
 40
1.0
 40
1.0
 40
1.0
 10
7169.094965626908
 20
4800.291361107287
 30
0.0
 10
7169.14130434691
 20
4798.699583868296
 30
0.0
 10
7169.232457214929
 20
4795.568399826644
 30
0.0
 10
7169.338566187783
 20
4791.262806927994
 30
0.0
 10
7169.428775349524
 20
4787.448118884074
 30
0.0
 10
7169.512730474657
 20
4783.7233328206
 30
0.0
 10
7169.6079192392
 20
4779.334464601669
 30
0.0
 10
7169.721841166368
 20
4773.869528071032
 30
0.0
 10
7169.801860523226
 20
4769.861997108605
 30
0.0
 10
7169.84544581624
 20
4767.679157629274
 30
0.0
  0
SPLINE
  5
A2
330
1F
100
AcDbEntity
  8
0
  6
SLD-Plná
 62
     7
370
    25
100
AcDbSpline
210
0.0
220
0.0
230
1.0
 70
     8
 71
     3
 72
     9
 73
     5
 74
     0
 42
0.00000001
 43
0.00000001
 40
0.0
 40
0.0
 40
0.0
 40
0.0
 40
0.1114025490393052
 40
1.0
 40
1.0
 40
1.0
 40
1.0
 10
7192.057424194876
 20
4807.748823675173
 30
0.0
 10
7191.667843884615
 20
4808.564713646834
 30
0.0
 10
7188.170793649943
 20
4815.8885134943
 30
0.0
 10
7184.667444672708
 20
4823.212057961175
 30
0.0
 10
7181.554377701711
 20
4829.719740906436
 30
0.0
  0
ARC
  5
A3
330
1F
100
AcDbEntity
  8
0
  6
SLD-Plná
 62
     7
370
    25
100
AcDbCircle
 10
7181.1054628938
 20
4829.5040760369
 30
0.0
 40
0.5000000000009095
100
AcDbArc
 50
25.5633153251
 51
90.0
  0
LINE
  5
A4
330
1F
100
AcDbEntity
  8
0
  6
SLD-Plná
 62
     7
370
    25
100
AcDbLine
 10
7181.1054628938
 20
4830.0040760369
 30
0.0
 11
7168.7984773925
 21
4830.0040760369
 31
0.0
  0
ARC
  5
A5
330
1F
100
AcDbEntity
  8
0
  6
SLD-Plná
 62
     7
370
    25
100
AcDbCircle
 10
7166.8879084498
 20
4827.7764294492
 30
0.0
 40
0.4999999999998472
100
AcDbArc
 50
132.1368353079
 51
204.0178301468
  0
SPLINE
  5
A6
330
1F
100
AcDbEntity
  8
0
  6
SLD-Plná
 62
     7
370
    25
100
AcDbSpline
210
0.0
220
0.0
230
1.0
 70
     8
 71
     3
 72
     9
 73
     5
 74
     0
 42
0.00000001
 43
0.00000001
 40
0.0
 40
0.0
 40
0.0
 40
0.0
 40
0.0518394579314509
 40
1.0
 40
1.0
 40
1.0
 40
1.0
 10
7166.431386926241
 20
4827.57291830675
 30
0.0
 10
7166.584016784241
 20
4827.230255229742
 30
0.0
 10
7169.528296375312
 20
4820.620173051405
 30
0.0
 10
7172.480710462601
 20
4814.010046839877
 30
0.0
 10
7175.280073004016
 20
4807.742585988012
 30
0.0
  0
SPLINE
  5
A7
330
1F
100
AcDbEntity
  8
0
  6
SLD-Plná
 62
     7
370
    25
100
AcDbSpline
210
0.0
220
0.0
230
1.0
 70
     8
 71
     3
 72
     9
 73
     5
 74
     0
 42
0.00000001
 43
0.00000001
 40
0.0
 40
0.0
 40
0.0
 40
0.0
 40
0.1455945016986475
 40
1.0
 40
1.0
 40
1.0
 40
1.0
 10
7168.463241601693
 20
4829.875017482119
 30
0.0
 10
7168.370456511506
 20
4829.79116431492
 30
0.0
 10
7167.73317221089
 20
4829.215227955917
 30
0.0
 10
7167.096608787648
 20
4828.639287523858
 30
0.0
 10
7166.552725498813
 20
4828.147200852012
 30
0.0
  0
ARC
  5
A8
330
1F
100
AcDbEntity
  8
0
  6
SLD-Plná
 62
     7
370
    25
100
AcDbCircle
 10
7168.7984773925
 20
4829.5040760369
 30
0.0
 40
0.5000000000009095
100
AcDbArc
 50
90.0
 51
132.1079312313
  0
SPLINE
  5
A9
330
1F
100
AcDbEntity
  8
0
  6
SLD-Plná
 62
     7
370
    25
100
AcDbSpline
210
0.0
220
0.0
230
1.0
 70
     8
 71
     3
 72
    12
 73
     8
 74
     0
 42
0.00000001
 43
0.00000001
 40
0.0
 40
0.0
 40
0.0
 40
0.0
 40
0.2023909562807685
 40
0.4005442779438407
 40
0.6038804832426722
 40
0.7992026139458636
 40
1.0
 40
1.0
 40
1.0
 40
1.0
 10
6921.783371506887
 20
4800.649898982556
 30
0.0
 10
6921.743734705995
 20
4800.824998288126
 30
0.0
 10
6921.665291014215
 20
4801.17153069356
 30
0.0
 10
6921.73796895512
 20
4801.717368269758
 30
0.0
 10
6921.938233310519
 20
4802.165820885794
 30
0.0
 10
6922.250038310249
 20
4802.481503019784
 30
0.0
 10
6922.493011991605
 20
4802.522598472437
 30
0.0
 10
6922.616178051424
 20
4802.543430214178
 30
0.0
  0
SPLINE
  5
AA
330
1F
100
AcDbEntity
  8
0
  6
SLD-Plná
 62
     7
370
    25
100
AcDbSpline
210
0.0
220
0.0
230
1.0
 70
     8
 71
     3
 72
    10
 73
     6
 74
     0
 42
0.00000001
 43
0.00000001
 40
0.0
 40
0.0
 40
0.0
 40
0.0
 40
0.3390330091486082
 40
0.6675422525573913
 40
1.0
 40
1.0
 40
1.0
 40
1.0
 10
6922.529191515991
 20
4799.814474098024
 30
0.0
 10
6922.398265790956
 20
4799.835710435965
 30
0.0
 10
6922.140478345342
 20
4799.877523924571
 30
0.0
 10
6921.80426869137
 20
4800.185471134941
 30
0.0
 10
6921.67380696078
 20
4800.492371872064
 30
0.0
 10
6921.608186417425
 20
4800.646738926947
 30
0.0
  0
SPLINE
  5
AB
330
1F
100
AcDbEntity
  8
0
  6
SLD-Plná
 62
     7
370
    25
100
AcDbSpline
210
0.0
220
0.0
230
1.0
 70
     8
 71
     3
 72
    14
 73
    10
 74
     0
 42
0.00000001
 43
0.00000001
 40
0.0
 40
0.0
 40
0.0
 40
0.0
 40
0.1253772380381911
 40
0.2893643745696386
 40
0.4532067447398629
 40
0.6241248747275104
 40
0.7966893948270442
 40
0.969198003263054
 40
1.0
 40
1.0
 40
1.0
 40
1.0
 10
6921.783371506885
 20
4800.649898982562
 30
0.0
 10
6921.817523107918
 20
4800.542178261671
 30
0.0
 10
6921.896343289539
 20
4800.293564242759
 30
0.0
 10
6922.114808764298
 20
4799.985939295703
 30
0.0
 10
6922.413838157007
 20
4799.772337559085
 30
0.0
 10
6922.753214589003
 20
4799.70457051008
 30
0.0
 10
6923.094322804743
 20
4799.800850624201
 30
0.0
 10
6923.31407777886
 20
4799.982034791429
 30
0.0
 10
6923.414427446676
 20
4800.108981071178
 30
0.0
 10
6923.429630638551
 20
4800.128213707328
 30
0.0
  0
SPLINE
  5
AC
330
1F
100
AcDbEntity
  8
0
  6
SLD-Plná
 62
     7
370
    25
100
AcDbSpline
210
0.0
220
0.0
230
1.0
 70
     8
 71
     3
 72
    16
 73
    12
 74
     0
 42
0.00000001
 43
0.00000001
 40
0.0
 40
0.0
 40
0.0
 40
0.0
 40
0.0048440765369727
 40
0.1400201684603044
 40
0.2795252861773545
 40
0.4190304038944139
 40
0.5542064958177377
 40
0.6949271391965058
 40
0.8320620188785809
 40
0.9691968985606573
 40
1.0
 40
1.0
 40
1.0
 40
1.0
 10
6923.429630638551
 20
4800.128213707328
 30
0.0
 10
6923.426096231231
 20
4800.123354149106
 30
0.0
 10
6923.323932629019
 20
4799.982886475727
 30
0.0
 10
6923.078222070315
 20
4799.757441193803
 30
0.0
 10
6922.650860274573
 20
4799.639306718139
 30
0.0
 10
6922.222698161711
 20
4799.757804457767
 30
0.0
 10
6921.859906475529
 20
4800.091050413695
 30
0.0
 10
6921.609566835313
 20
4800.591185040319
 30
0.0
 10
6921.526057325268
 20
4801.17283763342
 30
0.0
 10
6921.552823201197
 20
4801.628548424074
 30
0.0
 10
6921.646279360301
 20
4801.822139682049
 30
0.0
 10
6921.663421042783
 20
4801.85764809484
 30
0.0
  0
SPLINE
  5
AD
330
1F
100
AcDbEntity
  8
0
  6
SLD-Plná
 62
     7
370
    25
100
AcDbSpline
210
0.0
220
0.0
230
1.0
 70
     8
 71
     3
 72
    10
 73
     6
 74
     0
 42
0.00000001
 43
0.00000001
 40
0.0
 40
0.0
 40
0.0
 40
0.0
 40
0.2873762374028466
 40
0.8621287122084267
 40
1.0
 40
1.0
 40
1.0
 40
1.0
 10
6922.363150071892
 20
4802.620930641488
 30
0.0
 10
6922.428750765719
 20
4802.645073183647
 30
0.0
 10
6922.625552847204
 20
4802.717500810123
 30
0.0
 10
6922.878725044613
 20
4802.653266640739
 30
0.0
 10
6923.015144139848
 20
4802.511410093928
 30
0.0
 10
6923.041537136162
 20
4802.483965114098
 30
0.0
  0
ARC
  5
AE
330
1F
100
AcDbEntity
  8
0
  6
SLD-Plná
 62
     7
370
    25
100
AcDbCircle
 10
6921.8725826172
 20
4801.1477894691
 30
0.0
 40
1.861164494300796
100
AcDbArc
 50
326.782687224
 51
0.9657116774
  0
SPLINE
  5
AF
330
1F
100
AcDbEntity
  8
0
  6
SLD-Plná
 62
     7
370
    25
100
AcDbSpline
210
0.0
220
0.0
230
1.0
 70
     8
 71
     3
 72
    15
 73
    11
 74
     0
 42
0.00000001
 43
0.00000001
 40
0.0
 40
0.0
 40
0.0
 40
0.0
 40
0.1403648395487186
 40
0.2843998988629233
 40
0.4227598150099263
 40
0.5655507191910828
 40
0.7083416233722579
 40
0.8467015395192609
 40
0.9907365988334549
 40
1.0
 40
1.0
 40
1.0
 40
1.0
 10
6923.733482752459
 20
4801.179157629274
 30
0.0
 10
6923.714237002649
 20
4800.984282379299
 30
0.0
 10
6923.675242270658
 20
4800.589436336929
 30
0.0
 10
6923.418094512489
 20
4800.091517071029
 30
0.0
 10
6923.056814718144
 20
4799.75762623939
 30
0.0
 10
6922.629268334984
 20
4799.639553296091
 30
0.0
 10
6922.197922098659
 20
4799.756648403639
 30
0.0
 10
6921.847838797562
 20
4800.095351464757
 30
0.0
 10
6921.64142825907
 20
4800.425941925477
 30
0.0
 10
6921.61008066563
 20
4800.634157063156
 30
0.0
 10
6921.608186417425
 20
4800.646738926947
 30
0.0
  0
SPLINE
  5
B0
330
1F
100
AcDbEntity
  8
0
  6
SLD-Plná
 62
     7
370
    25
100
AcDbSpline
210
0.0
220
0.0
230
1.0
 70
     8
 71
     3
 72
    14
 73
    10
 74
     0
 42
0.00000001
 43
0.00000001
 40
0.0
 40
0.0
 40
0.0
 40
0.0
 40
0.0580581270550832
 40
0.1632145689903273
 40
0.3758187125002254
 40
0.480975154435468
 40
0.6935792979453838
 40
0.9061834414552905
 40
1.0
 40
1.0
 40
1.0
 40
1.0
 10
6922.310956221415
 20
4802.444253126275
 30
0.0
 10
6922.28391271309
 20
4802.4275320784
 30
0.0
 10
6922.207887274807
 20
4802.380525418685
 30
0.0
 10
6922.045815333785
 20
4802.235346064246
 30
0.0
 10
6921.894333916082
 20
4802.01073016145
 30
0.0
 10
6921.762879507874
 20
4801.676577862877
 30
0.0
 10
6921.693737225858
 20
4801.301040512457
 30
0.0
 10
6921.712942223169
 20
4800.920056631134
 30
0.0
 10
6921.766862716551
 20
4800.713224573027
 30
0.0
 10
6921.783371506885
 20
4800.649898982562
 30
0.0
  0
LINE
  5
B1
330
1F
100
AcDbEntity
  8
0
  6
SLD-Plná
 62
     7
370
    25
100
AcDbLine
 10
6923.2851950164
 20
4801.1791576293
 30
0.0
 11
6922.9790087985
 21
4801.9291576293
 31
0.0
  0
LINE
  5
B2
330
1F
100
AcDbEntity
  8
0
  6
SLD-Plná
 62
     7
370
    25
100
AcDbLine
 10
6922.9790087985
 20
4801.9291576293
 30
0.0
 11
6922.3666363628
 21
4801.9291576293
 31
0.0
  0
LINE
  5
B3
330
1F
100
AcDbEntity
  8
0
  6
SLD-Plná
 62
     7
370
    25
100
AcDbLine
 10
6922.3666363628
 20
4801.9291576293
 30
0.0
 11
6922.060450145
 21
4801.1791576293
 31
0.0
  0
LINE
  5
B4
330
1F
100
AcDbEntity
  8
0
  6
SLD-Plná
 62
     7
370
    25
100
AcDbLine
 10
6922.060450145
 20
4801.1791576293
 30
0.0
 11
6922.3666363628
 21
4800.4291576293
 31
0.0
  0
LINE
  5
B5
330
1F
100
AcDbEntity
  8
0
  6
SLD-Plná
 62
     7
370
    25
100
AcDbLine
 10
6922.3666363628
 20
4800.4291576293
 30
0.0
 11
6922.9790087985
 21
4800.4291576293
 31
0.0
  0
LINE
  5
B6
330
1F
100
AcDbEntity
  8
0
  6
SLD-Plná
 62
     7
370
    25
100
AcDbLine
 10
6922.9790087985
 20
4800.4291576293
 30
0.0
 11
6923.2851950164
 21
4801.1791576293
 31
0.0
  0
SPLINE
  5
B7
330
1F
100
AcDbEntity
  8
0
  6
SLD-Plná
 62
     7
370
    25
100
AcDbSpline
210
0.0
220
0.0
230
1.0
 70
     8
 71
     3
 72
    13
 73
     9
 74
     0
 42
0.00000001
 43
0.00000001
 40
0.0
 40
0.0
 40
0.0
 40
0.0
 40
0.1260788191881989
 40
0.3019861146262999
 40
0.4778855287637625
 40
0.6538835431895609
 40
0.8246867057653899
 40
1.0
 40
1.0
 40
1.0
 40
1.0
 10
6923.733482752459
 20
4801.179157629274
 30
0.0
 10
6923.724099851553
 20
4801.296255809392
 30
0.0
 10
6923.701625769017
 20
4801.576731345816
 30
0.0
 10
6923.556777701564
 20
4801.984500225882
 30
0.0
 10
6923.307050886453
 20
4802.337714295695
 30
0.0
 10
6922.990609804459
 20
4802.548799075734
 30
0.0
 10
6922.638861300131
 20
4802.603389701856
 30
0.0
 10
6922.421203324559
 20
4802.497757471285
 30
0.0
 10
6922.310956221415
 20
4802.444253126275
 30
0.0
  0
LINE
  5
B8
330
1F
100
AcDbEntity
  8
0
  6
SLD-Plná
 62
     7
370
    25
100
AcDbLine
 10
6922.5780882352
 20
4801.1791576293
 30
0.0
 11
6922.3192691901
 21
4801.8131322255
 31
0.0
  0
LINE
  5
B9
330
1F
100
AcDbEntity
  8
0
  6
SLD-Plná
 62
     7
370
    25
100
AcDbLine
 10
6922.3192691901
 20
4800.5451830331
 30
0.0
 11
6922.5780882352
 21
4801.1791576293
 31
0.0
  0
LINE
  5
BA
330
1F
100
AcDbEntity
  8
0
  6
SLD-Plná
 62
     7
370
    25
100
AcDbLine
 10
6922.5780882352
 20
4801.1791576293
 30
0.0
 11
6923.2851950164
 21
4801.1791576293
 31
0.0
  0
LWPOLYLINE
  5
BB
330
1F
100
AcDbEntity
  8
0
  6
SLD-Plná
 62
     7
370
    25
100
AcDbPolyline
 90
       24
 70
   128
 43
0.0
 10
6965.1189242878
 20
4991.6701419782
 10
6964.2877746871
 20
4991.7353710501
 10
6963.7637197131
 20
4991.9262205241
 10
6963.5856261257
 20
4992.2285359677
 10
6963.7667023117
 20
4992.6198960274
 10
6964.2935186786
 20
4993.071275318
 10
6965.1270036665
 20
4993.5491971024
 10
6966.2053415069
 20
4994.0182161083
 10
6967.4485568152
 20
4994.4435473415
 10
6968.7644459992
 20
4994.7936459303
 10
6970.0554155781
 20
4995.042546664
 10
6971.2257202439
 20
4995.1717897136
 10
6972.1885638534
 20
4995.1717897136
 10
6972.8725367007
 20
4995.042546664
 10
6973.2269116488
 20
4994.7936459303
 10
6973.2254063289
 20
4994.4435473415
 10
6972.8681323837
 20
4994.0182161083
 10
6972.1815871873
 20
4993.5491971024
 10
6971.2166886561
 20
4993.071275318
 10
6970.0449989002
 20
4992.6198960274
 10
6968.7534167885
 20
4992.2285359677
 10
6967.4377330578
 20
4991.9262205241
 10
6966.1955259514
 20
4991.7353710501
 10
6965.1189242878
 20
4991.6701419782
  0
LWPOLYLINE
  5
BC
330
1F
100
AcDbEntity
  8
0
  6
SLD-Plná
 62
     7
370
    25
100
AcDbPolyline
 90
       22
 70
   128
 43
0.0
 10
6965.7808285699
 20
4992.0219451084
 10
6965.0647612399
 20
4992.0844636124
 10
6964.6475720352
 20
4992.2664640808
 10
6964.5663300477
 20
4992.5517749735
 10
6964.8282539844
 20
4992.9150451654
 10
6965.4100707541
 20
4993.3239965059
 10
6966.2600833835
 20
4993.7422918737
 10
6967.3027645203
 20
4994.1327638897
 10
6968.4454673698
 20
4994.4607174018
 10
6969.5866577692
 20
4994.6970123011
 10
6970.6249359433
 20
4994.8206527489
 10
6971.4680463201
 20
4994.8206527489
 10
6972.0410748426
 20
4994.6970123011
 10
6972.2931054119
 20
4994.4607174018
 10
6972.2017440059
 20
4994.1327638897
 10
6971.7751084865
 20
4993.7422918737
 10
6971.0511072918
 20
4993.3239965059
 10
6970.0940711051
 20
4992.9150451654
 10
6968.9890367917
 20
4992.5517749735
 10
6967.8341914995
 20
4992.2664640808
 10
6966.7321483008
 20
4992.0844636124
 10
6965.7808285699
 20
4992.0219451084
  0
LINE
  5
BD
330
1F
100
AcDbEntity
  8
0
  6
SLD-Plná
 62
     7
370
    25
100
AcDbLine
 10
6911.3295731179
 20
4804.1791576293
 30
0.0
 11
6924.5596506721
 21
4804.1791576293
 31
0.0
  0
LINE
  5
BE
330
1F
100
AcDbEntity
  8
0
  6
SLD-Plná
 62
     7
370
    25
100
AcDbLine
 10
6909.0596506721
 20
4804.1791576293
 30
0.0
 11
6911.3295731179
 21
4804.1791576293
 31
0.0
  0
LINE
  5
BF
330
1F
100
AcDbEntity
  8
0
  6
SLD-Plná
 62
     7
370
    25
100
AcDbLine
 10
6911.8599032038
 20
4816.1791576293
 30
0.0
 11
6923.8096506721
 21
4816.1791576293
 31
0.0
  0
LINE
  5
C0
330
1F
100
AcDbEntity
  8
0
  6
SLD-Plná
 62
     7
370
    25
100
AcDbLine
 10
6909.8096506721
 20
4816.1791576293
 30
0.0
 11
6911.8599032038
 21
4816.1791576293
 31
0.0
  0
LINE
  5
C1
330
1F
100
AcDbEntity
  8
0
  6
SLD-Plná
 62
     7
370
    25
100
AcDbLine
 10
6903.5388177174
 20
4767.6791576293
 30
0.0
 11
6903.5388177174
 21
4766.6791576293
 31
0.0
  0
LINE
  5
C2
330
1F
100
AcDbEntity
  8
0
  6
SLD-Plná
 62
     7
370
    25
100
AcDbLine
 10
6903.5388177174
 20
4767.6791576293
 30
0.0
 11
6926.2579896882
 21
4767.6791576293
 31
0.0
  0
LINE
  5
C3
330
1F
100
AcDbEntity
  8
0
  6
SLD-Plná
 62
     7
370
    25
100
AcDbLine
 10
6896.9090544079
 20
4767.6791576293
 30
0.0
 11
6896.9090544079
 21
4766.6791576293
 31
0.0
  0
LINE
  5
C4
330
1F
100
AcDbEntity
  8
0
  6
SLD-Plná
 62
     7
370
    25
100
AcDbLine
 10
6892.8521821569
 20
4767.6791576293
 30
0.0
 11
6896.9090544079
 21
4767.6791576293
 31
0.0
  0
LINE
  5
C5
330
1F
100
AcDbEntity
  8
0
  6
SLD-Plná
 62
     7
370
    25
100
AcDbLine
 10
6925.0680030094
 20
4803.6702389099
 30
0.0
 11
6925.0805530513
 21
4803.6702505871
 31
0.0
  0
LINE
  5
C6
330
1F
100
AcDbEntity
  8
0
  6
SLD-Plná
 62
     7
370
    25
100
AcDbLine
 10
6897.3691873547
 20
4768.3875493083
 30
0.0
 11
6896.9090711241
 21
4767.6791842601
 31
0.0
  0
SPLINE
  5
C7
330
1F
100
AcDbEntity
  8
0
  6
SLD-Plná
 62
     7
370
    25
100
AcDbSpline
210
0.0
220
0.0
230
1.0
 70
     8
 71
     3
 72
    18
 73
    14
 74
     0
 42
0.00000001
 43
0.00000001
 40
0.0
 40
0.0
 40
0.0
 40
0.0
 40
0.1043946742900806
 40
0.1887322298944983
 40
0.272896699499495
 40
0.3081643621458511
 40
0.3432317557001282
 40
0.4670522449582009
 40
0.5915891046517905
 40
0.8364650800384115
 40
0.9590646011758761
 40
0.9897295041522854
 40
1.0
 40
1.0
 40
1.0
 40
1.0
 10
6897.002296861337
 20
4808.383124729836
 30
0.0
 10
6896.924686032543
 20
4806.981286916696
 30
0.0
 10
6896.784375572437
 20
4804.446943299808
 30
0.0
 10
6896.319201403438
 20
4800.789726016918
 30
0.0
 10
6895.733508536639
 20
4798.092616222885
 30
0.0
 10
6895.156486885851
 20
4796.09323379332
 30
0.0
 10
6894.833678206824
 20
4793.477104405865
 30
0.0
 10
6895.241348561408
 20
4789.651252820946
 30
0.0
 10
6896.246626807979
 20
4783.158118644827
 30
0.0
 10
6897.140392527925
 20
4776.628333898323
 30
0.0
 10
6897.565588416145
 20
4771.285118677421
 30
0.0
 10
6897.490731219554
 20
4769.062534098958
 30
0.0
 10
6897.39356571515
 20
4768.522932715528
 30
0.0
 10
6897.369187354656
 20
4768.387549308328
 30
0.0
  0
SPLINE
  5
C8
330
1F
100
AcDbEntity
  8
0
  6
SLD-Plná
 62
     7
370
    25
100
AcDbSpline
210
0.0
220
0.0
230
1.0
 70
     8
 71
     3
 72
    12
 73
     8
 74
     0
 42
0.00000001
 43
0.00000001
 40
0.0
 40
0.0
 40
0.0
 40
0.0
 40
0.1900943724388595
 40
0.3854791070104254
 40
0.653235518939504
 40
0.9282871170579183
 40
1.0
 40
1.0
 40
1.0
 40
1.0
 10
6906.491973453001
 20
4803.709964317868
 30
0.0
 10
6905.812391848239
 20
4803.756514995486
 30
0.0
 10
6904.434315754854
 20
4803.850911864834
 30
0.0
 10
6902.202628102595
 20
4804.583993293121
 30
0.0
 10
6899.863934162325
 20
4805.867350740675
 30
0.0
 10
6898.112418366389
 20
4807.29674577346
 30
0.0
 10
6897.192534184526
 20
4808.196956077404
 30
0.0
 10
6897.002296861337
 20
4808.383124729836
 30
0.0
  0
SPLINE
  5
C9
330
1F
100
AcDbEntity
  8
0
  6
SLD-Plná
 62
     7
370
    25
100
AcDbSpline
210
0.0
220
0.0
230
1.0
 70
     8
 71
     3
 72
    10
 73
     6
 74
     0
 42
0.00000001
 43
0.00000001
 40
0.0
 40
0.0
 40
0.0
 40
0.0
 40
0.1324584287773581
 40
0.6622924464969028
 40
0.9999999999999999
 40
0.9999999999999999
 40
0.9999999999999999
 40
0.9999999999999999
 10
6912.846564584694
 20
4803.668950193069
 30
0.0
 10
6912.56571897631
 20
4803.67113304664
 30
0.0
 10
6911.16149029278
 20
4803.682047319483
 30
0.0
 10
6909.042975204236
 20
4803.69638461811
 30
0.0
 10
6907.206757262189
 20
4803.706159322628
 30
0.0
 10
6906.491973453001
 20
4803.709964317868
 30
0.0
  0
SPLINE
  5
CA
330
1F
100
AcDbEntity
  8
0
  6
SLD-Plná
 62
     7
370
    25
100
AcDbSpline
210
0.0
220
0.0
230
1.0
 70
    11
 71
     3
 72
    31
 73
    27
 74
     0
 42
0.00000001
 43
0.00000001
 40
0.0
 40
0.0
 40
0.0
 40
0.0
 40
0.0280188111252295
 40
0.0567809296417354
 40
0.1173120976008265
 40
0.1819613786420983
 40
0.2156838925991722
 40
0.2496296269693372
 40
0.2837342743102085
 40
0.31754561067072
 40
0.3823759792986629
 40
0.4429647908461889
 40
0.4718601608810945
 40
0.4998626329256254
 40
0.5281494210162043
 40
0.5574223827021899
 40
0.6187036333774589
 40
0.6831324462664581
 40
0.7161410164671884
 40
0.7496100380223598
 40
0.7831115648803417
 40
0.816335773981268
 40
0.8811056497094801
 40
0.9425162114812312
 40
0.9717831103037569
 40
1.0
 40
1.0
 40
1.0
 40
1.0
 10
6917.091265150521
 20
4782.707280569183
 30
0.0
 10
6917.117090166312
 20
4783.021120543862
 30
0.0
 10
6917.169425306373
 20
4783.657126313034
 30
0.0
 10
6917.792677539986
 20
4784.835228233208
 30
0.0
 10
6919.046190846291
 20
4786.039599801223
 30
0.0
 10
6920.556230390754
 20
4786.850046938861
 30
0.0
 10
6921.765489322235
 20
4787.210453279952
 30
0.0
 10
6922.627946970561
 20
4787.307813803773
 30
0.0
 10
6923.375788563828
 20
4787.216927597539
 30
0.0
 10
6924.162848188887
 20
4786.8624391508
 30
0.0
 10
6924.754905594074
 20
4786.056741201062
 30
0.0
 10
6924.955384523782
 20
4784.855080368869
 30
0.0
 10
6925.002163025938
 20
4783.680110370631
 30
0.0
 10
6925.015872314848
 20
4782.725486176519
 30
0.0
 10
6925.016613567007
 20
4781.772526850757
 30
0.0
 10
6924.967853043855
 20
4780.583233264739
 30
0.0
 10
6924.722592155098
 20
4779.328034055952
 30
0.0
 10
6924.071955717721
 20
4778.471736088219
 30
0.0
 10
6923.26851617828
 20
4778.095473030304
 30
0.0
 10
6922.530076776905
 20
4777.993731868914
 30
0.0
 10
6921.693106281834
 20
4778.088141764083
 30
0.0
 10
6920.522242753872
 20
4778.45782507137
 30
0.0
 10
6919.057604869853
 20
4779.311420661691
 30
0.0
 10
6917.843591248417
 20
4780.566429256731
 30
0.0
 10
6917.20796463098
 20
4781.752512293669
 30
0.0
 10
6917.129688374658
 20
4782.392923767384
 30
0.0
 10
6917.091265150521
 20
4782.707280569183
 30
0.0
  0
SPLINE
  5
CB
330
1F
100
AcDbEntity
  8
0
  6
SLD-Plná
 62
     7
370
    25
100
AcDbSpline
210
0.0
220
0.0
230
1.0
 70
    11
 71
     3
 72
    27
 73
    23
 74
     0
 42
0.00000001
 43
0.00000001
 40
0.0
 40
0.0
 40
0.0
 40
0.0
 40
0.0309999309865697
 40
0.062156368342747
 40
0.1243254171141843
 40
0.1869481326199083
 40
0.2499104752615732
 40
0.3129429536756981
 40
0.3757017109129195
 40
0.4378844582564457
 40
0.468850285230157
 40
0.5000013812724393
 40
0.531151423791628
 40
0.5621312413580543
 40
0.6243509591360697
 40
0.6870742756955839
 40
0.7500773804134087
 40
0.8130653199583001
 40
0.875713249738701
 40
0.9378611627185331
 40
0.968997355897836
 40
1.0
 40
1.0
 40
1.0
 40
1.0
 10
6921.433114023686
 20
4801.18014263493
 30
0.0
 10
6921.440597289949
 20
4801.292525634301
 30
0.0
 10
6921.455601602524
 20
4801.517859010284
 30
0.0
 10
6921.581579315046
 20
4801.9484512759
 30
0.0
 10
6921.861874526772
 20
4802.422967898318
 30
0.0
 10
6922.33057734181
 20
4802.800464926355
 30
0.0
 10
6922.840342914572
 20
4802.934401758363
 30
0.0
 10
6923.302508638022
 20
4802.799641888799
 30
0.0
 10
6923.653971343934
 20
4802.420673553401
 30
0.0
 10
6923.83258661858
 20
4801.945540699472
 30
0.0
 10
6923.900959390464
 20
4801.514801698853
 30
0.0
 10
6923.915291702845
 20
4801.176699456996
 30
0.0
 10
6923.891984177918
 20
4800.838206206346
 30
0.0
 10
6923.811920750286
 20
4800.406171491472
 30
0.0
 10
6923.61963748959
 20
4799.929334472021
 30
0.0
 10
6923.25669075705
 20
4799.550787101732
 30
0.0
 10
6922.79066651097
 20
4799.417540266307
 30
0.0
 10
6922.284430864501
 20
4799.552697599313
 30
0.0
 10
6921.825129729177
 20
4799.932415964578
 30
0.0
 10
6921.557911656497
 20
4800.409962115929
 30
0.0
 10
6921.445033924646
 20
4800.842196320596
 30
0.0
 10
6921.437081626967
 20
4801.067655382705
 30
0.0
 10
6921.433114023686
 20
4801.18014263493
 30
0.0
  0
LINE
  5
CC
330
1F
100
AcDbEntity
  8
0
  6
SLD-Plná
 62
     7
370
    25
100
AcDbLine
 10
6896.9106322552
 20
4767.6791576293
 30
0.0
 11
6903.5388177207
 21
4767.6791576293
 31
0.0
  0
SPLINE
  5
CD
330
1F
100
AcDbEntity
  8
0
  6
SLD-Plná
 62
     7
370
    25
100
AcDbSpline
210
0.0
220
0.0
230
1.0
 70
    24
 71
     3
 72
    21
 73
    17
 74
     0
 42
0.00000001
 43
0.00000001
 40
0.0
 40
0.0
 40
0.0
 40
0.0
 40
0.1251586820208117
 40
0.1966263885901479
 40
0.268091325058432
 40
0.3397455126403639
 40
0.4114005209297749
 40
0.4829524672044492
 40
0.5545048886847296
 40
0.6260461210236467
 40
0.697587018857459
 40
0.7691431864584519
 40
0.8406991880547041
 40
0.9122661324767021
 40
0.9838339479672158
 40
1.0
 40
1.0
 40
1.0
 40
1.0
 10
6903.538817720681
 20
4767.679157629274
 30
0.0
 10
6904.544194265249
 20
4767.679157629274
 30
0.0
 10
6906.123657678732
 20
4767.679157629274
 30
0.0
 10
6908.732966683382
 20
4767.679157629274
 30
0.0
 10
6910.916118540084
 20
4767.679157629274
 30
0.0
 10
6913.166377184282
 20
4767.679157629274
 30
0.0
 10
6915.409835429096
 20
4767.679157629274
 30
0.0
 10
6917.581287566016
 20
4767.679157629274
 30
0.0
 10
6919.622685028951
 20
4767.679157629274
 30
0.0
 10
6921.470666668502
 20
4767.679157629274
 30
0.0
 10
6923.082444184502
 20
4767.679157629274
 30
0.0
 10
6924.39852000002
 20
4767.679157629274
 30
0.0
 10
6925.405057203317
 20
4767.679157629274
 30
0.0
 10
6926.018833767831
 20
4767.679157629274
 30
0.0
 10
6926.292324863551
 20
4767.679157629274
 30
0.0
 10
6926.235030276528
 20
4767.679157629274
 30
0.0
 10
6926.224473039042
 20
4767.679157629274
 30
0.0
  0
LWPOLYLINE
  5
CE
330
1F
100
AcDbEntity
  8
0
  6
SLD-Plná
 62
     7
370
    25
100
AcDbPolyline
 90
        9
 70
   128
 43
0.0
 10
6912.8465645847
 20
4803.6689501931
 10
6912.8507864838
 20
4803.7679271929
 10
6912.8654582501
 20
4803.8634038685
 10
6912.8900013527
 20
4803.9516154236
 10
6912.9234480183
 20
4804.0290835371
 10
6912.9644793918
 20
4804.0927535188
 10
6913.0114775415
 20
4804.1401147606
 10
6913.0625892559
 20
4804.169299734
 10
6913.1157991194
 20
4804.1791576293
  0
SPLINE
  5
CF
330
1F
100
AcDbEntity
  8
0
  6
SLD-Plná
 62
     7
370
    25
100
AcDbSpline
210
0.0
220
0.0
230
1.0
 70
    24
 71
     3
 72
    14
 73
    10
 74
     0
 42
0.00000001
 43
0.00000001
 40
0.0
 40
0.0
 40
0.0
 40
0.0
 40
0.1582121311271295
 40
0.3166338280043192
 40
0.4737033831023433
 40
0.6309516357155632
 40
0.7882918965841694
 40
0.9456587443148545
 40
1.0
 40
1.0
 40
1.0
 40
1.0
 10
6913.115799119352
 20
4804.179157629274
 30
0.0
 10
6913.872059831405
 20
4804.179157629274
 30
0.0
 10
6915.385582988705
 20
4804.179157629274
 30
0.0
 10
6917.982541089696
 20
4804.179157629274
 30
0.0
 10
6920.445841539323
 20
4804.179157629274
 30
0.0
 10
6922.560896944344
 20
4804.179157629274
 30
0.0
 10
6924.013241902256
 20
4804.179157629274
 30
0.0
 10
6924.713720672087
 20
4804.179157629274
 30
0.0
 10
6924.612948775573
 20
4804.179157629274
 30
0.0
 10
6924.587082635799
 20
4804.179157629274
 30
0.0
  0
SPLINE
  5
D0
330
1F
100
AcDbEntity
  8
0
  6
SLD-Plná
 62
     7
370
    25
100
AcDbSpline
210
0.0
220
0.0
230
1.0
 70
    11
 71
     3
 72
    31
 73
    27
 74
     0
 42
0.00000001
 43
0.00000001
 40
0.0
 40
0.0
 40
0.0
 40
0.0
 40
0.0309636004125649
 40
0.0622341849720988
 40
0.1251620345975493
 40
0.1878284025619325
 40
0.218924174615826
 40
0.2499456374545887
 40
0.2809433814106659
 40
0.3118573275746699
 40
0.374242243962746
 40
0.4370618388546778
 40
0.4683632948619192
 40
0.4994210031744389
 40
0.5304214311058655
 40
0.5618695434592704
 40
0.6248379221799265
 40
0.6876910389256853
 40
0.7189427875989591
 40
0.7499141309205345
 40
0.7807535580439653
 40
0.8119470852265344
 40
0.8746695943185039
 40
0.937638521734733
 40
0.9689696995701856
 40
1.0
 40
1.0
 40
1.0
 40
1.0
 10
6917.454267843761
 20
4782.694922272446
 30
0.0
 10
6917.479102663353
 20
4782.423888625615
 30
0.0
 10
6917.529018523769
 20
4781.879134207984
 30
0.0
 10
6917.987696341818
 20
4780.869845947507
 30
0.0
 10
6918.878927066608
 20
4779.801878545216
 30
0.0
 10
6919.991895561733
 20
4779.05286476661
 30
0.0
 10
6920.871470696306
 20
4778.73236490966
 30
0.0
 10
6921.487526798344
 20
4778.651231418226
 30
0.0
 10
6922.020637560061
 20
4778.737781155024
 30
0.0
 10
6922.588814714499
 20
4779.062953046704
 30
0.0
 10
6923.009987784723
 20
4779.813137635629
 30
0.0
 10
6923.120076230736
 20
4780.880884061909
 30
0.0
 10
6923.121302461824
 20
4781.891986470804
 30
0.0
 10
6923.109414395128
 20
4782.709564697822
 30
0.0
 10
6923.106730503177
 20
4783.528752314437
 30
0.0
 10
6923.103976086777
 20
4784.53418542399
 30
0.0
 10
6923.03002920054
 20
4785.574453787217
 30
0.0
 10
6922.668049220833
 20
4786.306081683949
 30
0.0
 10
6922.124980271514
 20
4786.62563118215
 30
0.0
 10
6921.595872769612
 20
4786.706969486005
 30
0.0
 10
6920.970084148895
 20
4786.620761793624
 30
0.0
 10
6920.067281914455
 20
4786.296938716328
 30
0.0
 10
6918.921754140255
 20
4785.562344251012
 30
0.0
 10
6917.99599003773
 20
4784.520540818801
 30
0.0
 10
6917.523859296323
 20
4783.513474456459
 30
0.0
 10
6917.477390261071
 20
4782.966893965697
 30
0.0
 10
6917.454267843761
 20
4782.694922272446
 30
0.0
  0
LWPOLYLINE
  5
D1
330
1F
100
AcDbEntity
  8
0
  6
SLD-Plná
 62
     7
370
    25
100
AcDbPolyline
 90
        9
 70
   128
 43
0.0
 10
6906.491973453
 20
4803.7099643179
 10
6906.499887163
 20
4803.8030027188
 10
6906.5170977857
 20
4803.8916470005
 10
6906.5429946749
 20
4803.9727519956
 10
6906.5766589889
 20
4804.0434400364
 10
6906.6168962921
 20
4804.1012030567
 10
6906.6622789338
 20
4804.14399158
 10
6906.711196703
 20
4804.1702874366
 10
6906.7619139596
 20
4804.1791576293
  0
LINE
  5
D2
330
1F
100
AcDbEntity
  8
0
  6
SLD-Plná
 62
     7
370
    25
100
AcDbLine
 10
6906.7619139596
 20
4804.1791576293
 30
0.0
 11
6913.1157991194
 21
4804.1791576293
 31
0.0
  0
SPLINE
  5
D3
330
1F
100
AcDbEntity
  8
0
  6
SLD-Plná
 62
     7
370
    25
100
AcDbSpline
210
0.0
220
0.0
230
1.0
 70
    11
 71
     3
 72
    40
 73
    36
 74
     0
 42
0.00000001
 43
0.00000001
 40
0.0
 40
0.0
 40
0.0
 40
0.0
 40
0.0312514938108213
 40
0.0625929351890268
 40
0.1248354440664942
 40
0.187244511937991
 40
0.2185725609819976
 40
0.249775498342848
 40
0.2811290044686216
 40
0.3123168840657865
 40
0.3747093484706876
 40
0.4370981486812246
 40
0.4682844315827653
 40
0.4996868184176158
 40
0.5310952895705074
 40
0.5622898177955449
 40
0.5937006044260962
 40
0.6093170344787676
 40
0.6171380588687354
 40
0.6226727013919241
 40
0.6243129609375052
 40
0.6251674559587572
 40
0.6251947719228597
 40
0.6252011213176388
 40
0.6252026786915718
 40
0.6252044091055399
 40
0.6875123647851464
 40
0.7187415264123361
 40
0.7501076359381921
 40
0.7812925826181412
 40
0.8126321532821321
 40
0.8749521818219554
 40
0.9373527531995065
 40
0.968739626661088
 40
0.9999999999999999
 40
0.9999999999999999
 40
0.9999999999999999
 40
0.9999999999999999
 10
6921.49347392053
 20
4801.183296175338
 30
0.0
 10
6921.496743617251
 20
4801.08486880425
 30
0.0
 10
6921.503292421482
 20
4800.887730769932
 30
0.0
 10
6921.601355799909
 20
4800.51027474361
 30
0.0
 10
6921.83326715172
 20
4800.093001479697
 30
0.0
 10
6922.167345512037
 20
4799.814251496993
 30
0.0
 10
6922.451948751139
 20
4799.699153499785
 30
0.0
 10
6922.665885557637
 20
4799.669399503579
 30
0.0
 10
6922.86986588612
 20
4799.69819205145
 30
0.0
 10
6923.11861945916
 20
4799.812124529585
 30
0.0
 10
6923.373922921744
 20
4800.089371795395
 30
0.0
 10
6923.533055569696
 20
4800.505771062087
 30
0.0
 10
6923.599911360102
 20
4800.88320672581
 30
0.0
 10
6923.619873237411
 20
4801.179304721845
 30
0.0
 10
6923.609026537016
 20
4801.47501382577
 30
0.0
 10
6923.567547466995
 20
4801.758271848988
 30
0.0
 10
6923.507606169173
 20
4801.974767198563
 30
0.0
 10
6923.452468231062
 20
4802.112081902463
 30
0.0
 10
6923.419918993387
 20
4802.180416777827
 30
0.0
 10
6923.402062828107
 20
4802.214483118062
 30
0.0
 10
6923.392217590489
 20
4802.232334491954
 30
0.0
 10
6923.38909453678
 20
4802.237898865782
 30
0.0
 10
6923.387990560037
 20
4802.239853073337
 30
0.0
 10
6923.387946770615
 20
4802.239930565604
 30
0.0
 10
6923.387934789035
 20
4802.239951767517
 30
0.0
 10
6923.310464054894
 20
4802.377035845988
 30
0.0
 10
6923.162354844411
 20
4802.544721739226
 30
0.0
 10
6922.917900952266
 20
4802.659292355141
 30
0.0
 10
6922.714879356587
 20
4802.688929675724
 30
0.0
 10
6922.500124343662
 20
4802.65992360774
 30
0.0
 10
6922.212406882162
 20
4802.545981958467
 30
0.0
 10
6921.870283827377
 20
4802.26921091535
 30
0.0
 10
6921.625125874005
 20
4801.854971432592
 30
0.0
 10
6921.513855701799
 20
4801.47876105084
 30
0.0
 10
6921.500258695725
 20
4801.281651796565
 30
0.0
 10
6921.49347392053
 20
4801.183296175338
 30
0.0
  0
SPLINE
  5
D4
330
1F
100
AcDbEntity
  8
0
  6
SLD-Plná
 62
     7
370
    25
100
AcDbSpline
210
0.0
220
0.0
230
1.0
 70
     8
 71
     3
 72
    11
 73
     7
 74
     0
 42
0.00000001
 43
0.00000001
 40
0.0
 40
0.0
 40
0.0
 40
0.0
 40
0.3003625479732404
 40
0.6070071708547338
 40
0.8011309396447021
 40
0.9999999999999999
 40
0.9999999999999999
 40
0.9999999999999999
 40
0.9999999999999999
 10
6897.135540803713
 20
4808.542790539039
 30
0.0
 10
6897.979817776557
 20
4807.843091630328
 30
0.0
 10
6899.686029753257
 20
4806.42905962836
 30
0.0
 10
6902.251658434237
 20
4805.080196406843
 30
0.0
 10
6904.646539445054
 20
4804.315360324431
 30
0.0
 10
6906.051135736696
 20
4804.224922532344
 30
0.0
 10
6906.761913959558
 20
4804.179157629274
 30
0.0
  0
ARC
  5
D5
330
1F
100
AcDbEntity
  8
0
  6
SLD-Plná
 62
     7
370
    25
100
AcDbCircle
 10
6910.4784437292
 20
4742.9501494803
 30
0.0
 40
66.93599644093925
100
AcDbArc
 50
90.909629731
 51
101.4982630887
  0
SPLINE
  5
D6
330
1F
100
AcDbEntity
  8
0
  6
SLD-Plná
 62
     7
370
    25
100
AcDbSpline
210
0.0
220
0.0
230
1.0
 70
     8
 71
     3
 72
    12
 73
     8
 74
     0
 42
0.00000001
 43
0.00000001
 40
0.0
 40
0.0
 40
0.0
 40
0.0
 40
0.2427914550828742
 40
0.4880681846577983
 40
0.7019438068197649
 40
0.9577199628241756
 40
1.0
 40
1.0
 40
1.0
 40
1.0
 10
6897.002296861337
 20
4808.383124729836
 30
0.0
 10
6897.004062081858
 20
4808.401552721442
 30
0.0
 10
6897.007610592142
 20
4808.43859733822
 30
0.0
 10
6897.03215178204
 20
4808.488110830446
 30
0.0
 10
6897.073954893896
 20
4808.524288017374
 30
0.0
 10
6897.110698532517
 20
4808.53778630446
 30
0.0
 10
6897.132454643451
 20
4808.542168861987
 30
0.0
 10
6897.135540803713
 20
4808.542790539039
 30
0.0
  0
LWPOLYLINE
  5
D7
330
1F
100
AcDbEntity
  8
0
  6
SLD-Plná
 62
     7
370
    25
100
AcDbPolyline
 90
       10
 70
   128
 43
0.0
 10
6887.0697074183
 20
4804.9901999548
 10
6887.0694319142
 20
4805.0839184347
 10
6887.2941654021
 20
4805.4498730175
 10
6887.8655330134
 20
4805.8581559137
 10
6888.7682138162
 20
4806.2978192249
 10
6889.9780028839
 20
4806.7570736031
 10
6891.4624603377
 20
4807.2236043756
 10
6893.1817812058
 20
4807.684901757
 10
6895.0898627735
 20
4808.1285962926
 10
6897.1355408037
 20
4808.542790539
  0
SPLINE
  5
D8
330
1F
100
AcDbEntity
  8
0
  6
SLD-Plná
 62
     7
370
    25
100
AcDbSpline
210
0.0
220
0.0
230
1.0
 70
     8
 71
     3
 72
    16
 73
    12
 74
     0
 42
0.00000001
 43
0.00000001
 40
0.0
 40
0.0
 40
0.0
 40
0.0
 40
0.1698334429627547
 40
0.2685941300154072
 40
0.3709217896505013
 40
0.4768237177353253
 40
0.5863064723896872
 40
0.6907815288162793
 40
0.821082028288685
 40
0.9771965405890001
 40
0.9999999999999999
 40
0.9999999999999999
 40
0.9999999999999999
 40
0.9999999999999999
 10
6892.864835372101
 20
4767.67765173085
 30
0.0
 10
6892.882705471712
 20
4767.677128723782
 30
0.0
 10
6892.910967301508
 20
4767.676301580283
 30
0.0
 10
6893.153743629727
 20
4767.676698321082
 30
0.0
 10
6893.430583474186
 20
4767.677570677197
 30
0.0
 10
6893.80987678994
 20
4767.678682996799
 30
0.0
 10
6894.281587541238
 20
4767.679435476629
 30
0.0
 10
6894.882204039202
 20
4767.678465593093
 30
0.0
 10
6895.674754167988
 20
4767.678497036086
 30
0.0
 10
6896.39946831672
 20
4767.679119298556
 30
0.0
 10
6896.852848196253
 20
4767.679177326995
 30
0.0
 10
6896.910632384067
 20
4767.679184722838
 30
0.0
  0
LWPOLYLINE
  5
D9
330
1F
100
AcDbEntity
  8
0
  6
SLD-Plná
 62
     7
370
    25
100
AcDbPolyline
 90
       20
 70
   128
 43
0.0
 10
6908.1408239062
 20
4816.6493378795
 10
6906.505341325
 20
4816.6113785088
 10
6904.6695400072
 20
4816.4985358293
 10
6902.683495827
 20
4816.3138878951
 10
6900.6013828925
 20
4816.0624714207
 10
6898.4799958168
 20
4815.7511443919
 10
6896.3772005095
 20
4815.3883989986
 10
6894.3503557448
 20
4814.9841299895
 10
6892.4547485644
 20
4814.5493647694
 10
6890.7420861906
 20
4814.0959626
 10
6889.2590855885
 20
4813.6362911106
 10
6888.0461991486
 20
4813.1828889412
 10
6887.1365112512
 20
4812.748123721
 10
6886.5548358107
 20
4812.3438547119
 10
6886.3170394168
 20
4811.9811093186
 10
6886.4296085354
 20
4811.6697822898
 10
6886.8894725743
 20
4811.4183658154
 10
6887.6840876412
 20
4811.2337178812
 10
6888.7917787086
 20
4811.1208752017
 10
6889.1110829482
 20
4811.1044258664
  0
LINE
  5
DA
330
1F
100
AcDbEntity
  8
0
  6
SLD-Plná
 62
     7
370
    25
100
AcDbLine
 10
6909.5765329182
 20
4814.2761655998
 30
0.0
 11
6909.6934114682
 21
4814.3193303661
 31
0.0
  0
ARC
  5
DB
330
1F
100
AcDbEntity
  8
0
  6
SLD-Plná
 62
     7
370
    25
100
AcDbCircle
 10
6908.8872099412
 20
4808.373380752
 30
0.0
 40
8.309546226418014
100
AcDbArc
 50
69.9467968183
 51
95.1534083255
  0
LWPOLYLINE
  5
DC
330
1F
100
AcDbEntity
  8
0
  6
SLD-Plná
 62
     7
370
    25
100
AcDbPolyline
 90
       17
 70
   128
 43
0.0
 10
6906.7179864343
 20
4816.2083145792
 10
6905.215275585
 20
4816.1706746589
 10
6903.5179938943
 20
4816.058964676
 10
6901.6806933924
 20
4815.8767750813
 10
6899.762426429
 20
4815.6299615982
 10
6897.8248476828
 20
4815.3264570152
 10
6895.9302325289
 20
4814.9760162193
 10
6894.1394754573
 20
4814.589902666
 10
6892.5101328736
 20
4814.1805263626
 10
6891.0945731891
 20
4813.7610450004
 10
6889.9382936569
 20
4813.3449410554
 10
6889.0784580524
 20
4812.9455884509
 10
6888.5427021995
 20
4812.5758227081
 10
6888.3482457321
 20
4812.2475284023
 10
6888.5013386411
 20
4811.9712571826
 10
6888.9970603944
 20
4811.7558886332
 10
6889.0106957871
 20
4811.7521676722
  0
LWPOLYLINE
  5
DD
330
1F
100
AcDbEntity
  8
0
  6
SLD-Plná
 62
     7
370
    25
100
AcDbPolyline
 90
        3
 70
   128
 43
0.0
 10
6909.4761457571
 20
4814.9239074056
 10
6909.5544131333
 20
4814.9760162193
 10
6909.7436114287
 20
4815.1225297341
  0
ARC
  5
DE
330
1F
100
AcDbEntity
  8
0
  6
SLD-Plná
 62
     7
370
    25
100
AcDbCircle
 10
6907.4100547048
 20
4809.8719836681
 30
0.0
 40
6.374013484925652
100
AcDbArc
 50
68.122717974
 51
96.2332653033
  0
LWPOLYLINE
  5
DF
330
1F
100
AcDbEntity
  8
0
  6
SLD-Plná
 62
     7
370
    25
100
AcDbPolyline
 90
       14
 70
   128
 43
0.0
 10
6906.2999412958
 20
4825.7208018147
 10
6904.6950402826
 20
4825.6826183455
 10
6902.8899329305
 20
4825.5691664069
 10
6900.9365488913
 20
4825.3837098046
 10
6898.8910834673
 20
4825.1315837873
 10
6896.8123809747
 20
4824.8200415616
 10
6894.7602418994
 20
4824.4580456299
 10
6892.7937025464
 20
4824.0560099563
 10
6890.9693366724
 20
4823.6255003751
 10
6889.3396279618
 20
4823.178901863
 10
6887.9514601672
 20
4822.7290622462
 10
6886.8447683486
 20
4822.2889225914
 10
6886.0513900145
 20
4821.8711449151
 10
6885.7172691936
 20
4821.619497077
  0
ARC
  5
E0
330
1F
100
AcDbEntity
  8
0
  6
SLD-Plná
 62
     7
370
    25
100
AcDbCircle
 10
6906.7160265125
 20
4813.2886409119
 30
0.0
 40
12.43912181876072
100
AcDbArc
 50
78.9325111148
 51
91.9168857023
  0
LINE
  5
E1
330
1F
100
AcDbEntity
  8
0
  6
SLD-Plná
 62
     7
370
    25
100
AcDbLine
 10
6888.8470090008
 20
4812.8083463049
 30
0.0
 11
6889.6454521187
 21
4807.6564426001
 31
0.0
  0
ARC
  5
E2
330
1F
100
AcDbEntity
  8
0
  6
SLD-Plná
 62
     7
370
    25
100
AcDbCircle
 10
6892.3988076852
 20
4805.2945746402
 30
0.0
 40
3.533133301676517
100
AcDbArc
 50
97.885740971
 51
143.9465052655
  0
LINE
  5
E3
330
1F
100
AcDbEntity
  8
0
  6
SLD-Plná
 62
     7
370
    25
100
AcDbLine
 10
6891.9140687329
 20
4808.7942973543
 30
0.0
 11
6891.1419442501
 21
4813.7763817316
 31
0.0
  0
LINE
  5
E4
330
1F
100
AcDbEntity
  8
0
  6
SLD-Plná
 62
     7
370
    25
100
AcDbLine
 10
6892.3556132324
 20
4814.1381103248
 30
0.0
 11
6893.1255993087
 21
4809.1698238803
 31
0.0
  0
ARC
  5
E5
330
1F
100
AcDbEntity
  8
0
  6
SLD-Plná
 62
     7
370
    25
100
AcDbCircle
 10
6908.75717116
 20
4751.6084562983
 30
0.0
 40
59.6460985853479
100
AcDbArc
 50
96.8548866162
 51
105.1930423899
  0
LINE
  5
E6
330
1F
100
AcDbEntity
  8
0
  6
SLD-Plná
 62
     7
370
    25
100
AcDbLine
 10
6901.6381034707
 20
4810.8281823335
 30
0.0
 11
6900.8707883922
 21
4815.7792343333
 31
0.0
  0
LINE
  5
E7
330
1F
100
AcDbEntity
  8
0
  6
SLD-Plná
 62
     7
370
    25
100
AcDbLine
 10
6902.5501975545
 20
4815.9700804061
 30
0.0
 11
6903.3179904075
 21
4811.0159455965
 31
0.0
  0
ARC
  5
E8
330
1F
100
AcDbEntity
  8
0
  6
SLD-Plná
 62
     7
370
    25
100
AcDbCircle
 10
6906.5421808605
 20
4787.7674406119
 30
0.0
 40
23.47101165476147
100
AcDbArc
 50
82.7867910104
 51
97.895632676
  0
LINE
  5
E9
330
1F
100
AcDbEntity
  8
0
  6
SLD-Plná
 62
     7
370
    25
100
AcDbLine
 10
6909.5316654277
 20
4811.7313937183
 30
0.0
 11
6908.8584401033
 21
4816.0753375322
 31
0.0
  0
LINE
  5
EA
330
1F
100
AcDbEntity
  8
0
  6
SLD-Plná
 62
     7
370
    25
100
AcDbLine
 10
6909.3124589709
 20
4815.9800860383
 30
0.0
 11
6909.6579001237
 21
4813.7511488541
 31
0.0
  0
ARC
  5
EB
330
1F
100
AcDbEntity
  8
0
  6
SLD-Plná
 62
     7
370
    25
100
AcDbCircle
 10
7175.7408615763
 20
4780.1327327384
 30
0.0
 40
3.523663516658325
100
AcDbArc
 50
110.7766160378
 51
187.3957821651
  0
ARC
  5
EC
330
1F
100
AcDbEntity
  8
0
  6
SLD-Plná
 62
     7
370
    25
100
AcDbCircle
 10
7175.6548074726
 20
4779.2391859884
 30
0.0
 40
3.436575101559265
100
AcDbArc
 50
172.6444513623
 51
257.8843280032
  0
LINE
  5
ED
330
1F
100
AcDbEntity
  8
0
  6
SLD-Plná
 62
     7
370
    25
100
AcDbLine
 10
7174.9335184499
 20
4777.9471068217
 30
0.0
 11
7175.9941786217
 21
4778.8131322255
 31
0.0
  0
LINE
  5
EE
330
1F
100
AcDbEntity
  8
0
  6
SLD-Plná
 62
     7
370
    25
100
AcDbLine
 10
7175.9941786217
 20
4778.8131322255
 30
0.0
 11
7175.9941786217
 21
4780.5451830331
 31
0.0
  0
LINE
  5
EF
330
1F
100
AcDbEntity
  8
0
  6
SLD-Plná
 62
     7
370
    25
100
AcDbLine
 10
7175.9941786217
 20
4780.5451830331
 30
0.0
 11
7174.9335184499
 21
4781.4112084368
 31
0.0
  0
LINE
  5
F0
330
1F
100
AcDbEntity
  8
0
  6
SLD-Plná
 62
     7
370
    25
100
AcDbLine
 10
7174.9335184499
 20
4781.4112084368
 30
0.0
 11
7173.8728582781
 21
4780.5451830331
 31
0.0
  0
LINE
  5
F1
330
1F
100
AcDbEntity
  8
0
  6
SLD-Plná
 62
     7
370
    25
100
AcDbLine
 10
7173.8728582781
 20
4780.5451830331
 30
0.0
 11
7173.8728582781
 21
4778.8131322255
 31
0.0
  0
LINE
  5
F2
330
1F
100
AcDbEntity
  8
0
  6
SLD-Plná
 62
     7
370
    25
100
AcDbLine
 10
7173.8728582781
 20
4778.8131322255
 30
0.0
 11
7174.9335184499
 21
4777.9471068217
 31
0.0
  0
LINE
  5
F3
330
1F
100
AcDbEntity
  8
0
  6
SLD-Plná
 62
     7
370
    25
100
AcDbLine
 10
7175.9941786217
 20
4780.5451830331
 30
0.0
 11
7173.8728582781
 21
4780.5451830331
 31
0.0
  0
LINE
  5
F4
330
1F
100
AcDbEntity
  8
0
  6
SLD-Plná
 62
     7
370
    25
100
AcDbLine
 10
7175.9941786217
 20
4778.8131322255
 30
0.0
 11
7173.8728582781
 21
4778.8131322255
 31
0.0
  0
LWPOLYLINE
  5
F5
330
1F
100
AcDbEntity
  8
0
  6
SLD-Plná
 62
     7
370
    25
100
AcDbPolyline
 90
       10
 70
   128
 43
0.0
 10
6920.1552877441
 20
4786.2878058495
 10
6920.6568707918
 20
4785.9700541637
 10
6921.3102023404
 20
4785.2218539334
 10
6921.768069822
 20
4784.224756873
 10
6921.9856539773
 20
4783.0763657897
 10
6921.9416561532
 20
4781.8890932042
 10
6921.6403831632
 20
4780.7791576293
 10
6921.1113257067
 20
4779.8552072925
 10
6920.4062716137
 20
4779.2076848902
 10
6920.0902755484
 20
4779.0414620627
  0
LINE
  5
F6
330
1F
100
AcDbEntity
  8
0
  6
SLD-Plná
 62
     7
370
    25
100
AcDbLine
 10
6918.2527077358
 20
4783.5451830331
 30
0.0
 11
6918.2527077358
 21
4781.8131322255
 31
0.0
  0
LINE
  5
F7
330
1F
100
AcDbEntity
  8
0
  6
SLD-Plná
 62
     7
370
    25
100
AcDbLine
 10
6918.2527077358
 20
4781.8131322255
 30
0.0
 11
6919.3133679075
 21
4780.9471068217
 31
0.0
  0
LINE
  5
F8
330
1F
100
AcDbEntity
  8
0
  6
SLD-Plná
 62
     7
370
    25
100
AcDbLine
 10
6919.3133679075
 20
4780.9471068217
 30
0.0
 11
6920.3740280793
 21
4781.8131322255
 31
0.0
  0
LINE
  5
F9
330
1F
100
AcDbEntity
  8
0
  6
SLD-Plná
 62
     7
370
    25
100
AcDbLine
 10
6920.3740280793
 20
4781.8131322255
 30
0.0
 11
6920.3740280793
 21
4783.5451830331
 31
0.0
  0
LINE
  5
FA
330
1F
100
AcDbEntity
  8
0
  6
SLD-Plná
 62
     7
370
    25
100
AcDbLine
 10
6920.3740280793
 20
4783.5451830331
 30
0.0
 11
6919.3133679075
 21
4784.4112084368
 31
0.0
  0
LINE
  5
FB
330
1F
100
AcDbEntity
  8
0
  6
SLD-Plná
 62
     7
370
    25
100
AcDbLine
 10
6919.3133679075
 20
4784.4112084368
 30
0.0
 11
6918.2527077358
 21
4783.5451830331
 31
0.0
  0
LINE
  5
FC
330
1F
100
AcDbEntity
  8
0
  6
SLD-Plná
 62
     7
370
    25
100
AcDbLine
 10
6918.2527077358
 20
4783.5451830331
 30
0.0
 11
6920.3740280793
 21
4783.5451830331
 31
0.0
  0
LINE
  5
FD
330
1F
100
AcDbEntity
  8
0
  6
SLD-Plná
 62
     7
370
    25
100
AcDbLine
 10
6918.2527077358
 20
4781.8131322255
 30
0.0
 11
6920.3740280793
 21
4781.8131322255
 31
0.0
  0
LWPOLYLINE
  5
FE
330
1F
100
AcDbEntity
  8
0
  6
SLD-Plná
 62
     7
370
    25
100
AcDbPolyline
 90
       19
 70
   128
 43
0.0
 10
7205.0192125375
 20
4806.1930564448
 10
7206.2000941004
 20
4806.3127839338
 10
7207.1742282535
 20
4806.5566788714
 10
7207.8325251218
 20
4806.9141822575
 10
7208.1570280828
 20
4807.3755423318
 10
7208.1388855417
 20
4807.9281743941
 10
7207.7785923796
 20
4808.5570040822
 10
7207.0859764549
 20
4809.2448785617
 10
7206.0799305244
 20
4809.9730344097
 10
7204.7878968986
 20
4810.721609433
 10
7203.2451188867
 20
4811.4701844563
 10
7201.4936794511
 20
4812.1983403044
 10
7199.5813532939
 20
4812.8862147838
 10
7197.5603036878
 20
4813.515044472
 10
7195.4856595974
 20
4814.0676765342
 10
7193.4140119053
 20
4814.5290366085
 10
7191.4018697603
 20
4814.8865399947
 10
7189.5041191546
 20
4815.1304349323
 10
7188.4651220629
 20
4815.217828981
  0
LWPOLYLINE
  5
FF
330
1F
100
AcDbEntity
  8
0
  6
SLD-Plná
 62
     7
370
    25
100
AcDbPolyline
 90
       18
 70
   128
 43
0.0
 10
7205.1305294468
 20
4806.6146073383
 10
7205.9673322113
 20
4806.7766414261
 10
7206.7222495766
 20
4807.0859072517
 10
7207.1390865521
 20
4807.5056420484
 10
7207.2051777572
 20
4808.0230923867
 10
7206.9185150441
 20
4808.6225358
 10
7206.2878085143
 20
4809.2857585034
 10
7205.3322218665
 20
4809.9926088107
 10
7204.0807901174
 20
4810.721609433
 10
7202.5715373876
 20
4811.4506100554
 10
7200.8503215574
 20
4812.1574603627
 10
7198.9694408989
 20
4812.8206830661
 10
7196.9860450192
 20
4813.4201264793
 10
7194.9603983984
 20
4813.9375768176
 10
7192.954049284
 20
4814.3573116143
 10
7191.0279595786
 20
4814.66657744
 10
7189.2406525433
 20
4814.855977409
 10
7188.5672253437
 20
4814.8972163
  0
ARC
  5
100
330
1F
100
AcDbEntity
  8
0
  6
SLD-Plná
 62
     7
370
    25
100
AcDbCircle
 10
7193.2530977604
 20
4790.7564725769
 30
0.0
 40
16.56421496104936
100
AcDbArc
 50
50.4911914609
 51
73.8290211514
  0
LINE
  5
101
330
1F
100
AcDbEntity
  8
0
  6
SLD-Plná
 62
     7
370
    25
100
AcDbLine
 10
7205.4717667613
 20
4809.9004240083
 30
0.0
 11
7203.7911989888
 21
4803.5362080897
 31
0.0
  0
LINE
  5
102
330
1F
100
AcDbEntity
  8
0
  6
SLD-Plná
 62
     7
370
    25
100
AcDbLine
 10
7204.1772996448
 20
4803.0047795295
 30
0.0
 11
7205.9150920938
 21
4809.585702089
 31
0.0
  0
LWPOLYLINE
  5
103
330
1F
100
AcDbEntity
  8
0
  6
SLD-Plná
 62
     7
370
    25
100
AcDbPolyline
 90
        3
 70
   128
 43
0.0
 10
7204.2632516504
 20
4802.4199723754
 10
7204.2784548401
 20
4802.6862944946
 10
7204.1772996448
 20
4803.0047795295
  0
LINE
  5
104
330
1F
100
AcDbEntity
  8
0
  6
SLD-Plná
 62
     7
370
    25
100
AcDbLine
 10
7189.1432255057
 20
4813.8470853176
 30
0.0
 11
7189.4062270438
 21
4814.843057395
 31
0.0
  0
ARC
  5
105
330
1F
100
AcDbEntity
  8
0
  6
SLD-Plná
 62
     7
370
    25
100
AcDbCircle
 10
7184.2582310928
 20
4767.8020111562
 30
0.0
 40
41.17652696467329
100
AcDbArc
 50
73.0831564074
 51
79.4687109281
  0
LINE
  5
106
330
1F
100
AcDbEntity
  8
0
  6
SLD-Plná
 62
     7
370
    25
100
AcDbLine
 10
7197.8198114861
 20
4813.1797134692
 30
0.0
 11
7196.2399194376
 21
4807.1967508721
 31
0.0
  0
LINE
  5
107
330
1F
100
AcDbEntity
  8
0
  6
SLD-Plná
 62
     7
370
    25
100
AcDbLine
 10
7197.8663089398
 20
4806.6653223119
 30
0.0
 11
7199.449505608
 21
4812.6607993184
 31
0.0
  0
LWPOLYLINE
  5
108
330
1F
100
AcDbEntity
  8
0
  6
SLD-Plná
 62
     7
370
    25
100
AcDbPolyline
 90
       17
 70
   128
 43
0.0
 10
7209.8429103161
 20
4817.0758958827
 10
7209.4006367094
 20
4817.6295259517
 10
7208.573064757
 20
4818.3312519494
 10
7207.4383594073
 20
4819.0647855718
 10
7206.0291640672
 20
4819.8090243921
 10
7204.386018721
 20
4820.5425580145
 10
7202.5561936686
 20
4821.2442840122
 10
7200.5923296452
 20
4821.8940150059
 10
7198.5509234432
 20
4822.4730594178
 10
7196.4907026022
 20
4822.9647591946
 10
7194.4709359248
 20
4823.3549690288
 10
7192.5497284209
 20
4823.6324632939
 10
7190.7823497325
 20
4823.7892589853
 10
7189.2196441266
 20
4823.8208453763
 10
7187.9065677982
 20
4823.726313784
 10
7186.8808955626
 20
4823.5083837101
 10
7186.3798924694
 20
4823.3018957343
  0
LINE
  5
109
330
1F
100
AcDbEntity
  8
0
  6
SLD-Plná
 62
     7
370
    25
100
AcDbLine
 10
7193.3182947608
 20
4766.6791576293
 30
0.0
 11
7193.3182947608
 21
4767.6791576293
 31
0.0
  0
LINE
  5
10A
330
1F
100
AcDbEntity
  8
0
  6
SLD-Plná
 62
     7
370
    25
100
AcDbLine
 10
7193.3182947608
 20
4767.6791576293
 30
0.0
 11
7169.8455765194
 21
4767.6791576293
 31
0.0
  0
LINE
  5
10B
330
1F
100
AcDbEntity
  8
0
  6
SLD-Plná
 62
     7
370
    25
100
AcDbLine
 10
7200.035809182
 20
4766.6791576293
 30
0.0
 11
7200.035809182
 21
4767.6791576293
 31
0.0
  0
LINE
  5
10C
330
1F
100
AcDbEntity
  8
0
  6
SLD-Plná
 62
     7
370
    25
100
AcDbLine
 10
7200.035809182
 20
4767.6791576293
 30
0.0
 11
7193.3182947608
 21
4767.6791576293
 31
0.0
  0
LINE
  5
10D
330
1F
100
AcDbEntity
  8
0
  6
SLD-Plná
 62
     7
370
    25
100
AcDbLine
 10
7204.0630909407
 20
4767.6791576293
 30
0.0
 11
7200.035809182
 21
4767.6791576293
 31
0.0
  0
LWPOLYLINE
  5
10E
330
1F
100
AcDbEntity
  8
0
  6
SLD-Plná
 62
     7
370
    25
100
AcDbPolyline
 90
       16
 70
   128
 43
0.0
 10
7170.5256120292
 20
4800.656086778
 10
7171.1582634429
 20
4800.3432958942
 10
7172.0792542266
 20
4800.2253820832
 10
7173.2307151422
 20
4800.3097543034
 10
7174.5402956657
 20
4800.591111138
 10
7175.9257100364
 20
4801.0517739022
 10
7177.2999075742
 20
4801.6627974604
 10
7178.5765423939
 20
4802.3857889552
 10
7179.6753988347
 20
4803.1753201721
 10
7180.527431705
 20
4803.9817819609
 10
7181.079104646
 20
4804.7545013616
 10
7181.295754018
 20
4805.4449255723
 10
7181.1637669441
 20
4806.0096727006
 10
7180.6914366576
 20
4806.4132576076
 10
7179.9084414076
 20
4806.6303215691
 10
7179.1569277217
 20
4806.6623595402
  0
LWPOLYLINE
  5
10F
330
1F
100
AcDbEntity
  8
0
  6
SLD-Plná
 62
     7
370
    25
100
AcDbPolyline
 90
        5
 70
   128
 43
0.0
 10
7171.0775044368
 20
4803.0286404103
 10
7170.6509338547
 20
4802.5140609521
 10
7170.2637193965
 20
4801.7766746351
 10
7170.2210518007
 20
4801.144100933
 10
7170.5256120292
 20
4800.656086778
  0
LINE
  5
110
330
1F
100
AcDbEntity
  8
0
  6
SLD-Plná
 62
     7
370
    25
100
AcDbLine
 10
7175.0129879825
 20
4801.3532577758
 30
0.0
 11
7178.9291742963
 21
4803.4447707691
 31
0.0
  0
LINE
  5
111
330
1F
100
AcDbEntity
  8
0
  6
SLD-Plná
 62
     7
370
    25
100
AcDbLine
 10
7178.9291742963
 20
4803.4447707691
 30
0.0
 11
7179.6633800947
 21
4805.5362837625
 31
0.0
  0
LINE
  5
112
330
1F
100
AcDbEntity
  8
0
  6
SLD-Plná
 62
     7
370
    25
100
AcDbLine
 10
7171.8310074672
 20
4801.3532577758
 30
0.0
 11
7175.0129879825
 21
4801.3532577758
 31
0.0
  0
LINE
  5
113
330
1F
100
AcDbEntity
  8
0
  6
SLD-Plná
 62
     7
370
    25
100
AcDbLine
 10
7178.7146505347
 20
4807.6457444623
 30
0.0
 11
7175.5326700193
 21
4807.6457444623
 31
0.0
  0
LINE
  5
114
330
1F
100
AcDbEntity
  8
0
  6
SLD-Plná
 62
     7
370
    25
100
AcDbLine
 10
7177.9804447362
 20
4805.5542314689
 30
0.0
 11
7178.7146505347
 21
4807.6457444623
 31
0.0
  0
LINE
  5
115
330
1F
100
AcDbEntity
  8
0
  6
SLD-Plná
 62
     7
370
    25
100
AcDbLine
 10
7174.0642584225
 20
4803.4627184755
 30
0.0
 11
7177.9804447362
 21
4805.5542314689
 31
0.0
  0
LINE
  5
116
330
1F
100
AcDbEntity
  8
0
  6
SLD-Plná
 62
     7
370
    25
100
AcDbLine
 10
7170.8822779071
 20
4803.4627184755
 30
0.0
 11
7174.0642584225
 21
4803.4627184755
 31
0.0
  0
LINE
  5
117
330
1F
100
AcDbEntity
  8
0
  6
SLD-Plná
 62
     7
370
    25
100
AcDbLine
 10
7171.6164837056
 20
4805.5542314689
 30
0.0
 11
7170.8822779071
 21
4803.4627184755
 31
0.0
  0
LINE
  5
118
330
1F
100
AcDbEntity
  8
0
  6
SLD-Plná
 62
     7
370
    25
100
AcDbLine
 10
7175.5326700193
 20
4807.6457444623
 30
0.0
 11
7171.6164837056
 21
4805.5542314689
 31
0.0
  0
LWPOLYLINE
  5
119
330
1F
100
AcDbEntity
  8
0
  6
SLD-Plná
 62
     7
370
    25
100
AcDbPolyline
 90
       18
 70
   128
 43
0.0
 10
7172.4052392514
 20
4804.2760846396
 10
7172.8788298925
 20
4804.0958209426
 10
7173.6116777868
 20
4804.1125236684
 10
7174.5048077652
 20
4804.3239370215
 10
7175.4375976752
 20
4804.7015084571
 10
7176.2840690706
 20
4805.1942448604
 10
7176.929901299
 20
4805.73559945
 10
7177.2878711393
 20
4806.2524592888
 10
7177.309632781
 20
4806.6750195914
 10
7176.9922471938
 20
4806.9462112477
 10
7176.37857906
 20
4807.0294083215
 10
7175.5515076614
 20
4806.9133745872
 10
7174.6227335734
 20
4806.6137810435
 10
7173.7176928831
 20
4806.1710894586
 10
7172.9586163507
 20
4805.645087784
 10
7172.4480214682
 20
4805.1068154607
 10
7172.2548669037
 20
4804.6289691484
 10
7172.4052392514
 20
4804.2760846396
  0
LINE
  5
11A
330
1F
100
AcDbEntity
  8
0
  6
SLD-Plná
 62
     7
370
    25
100
AcDbLine
 10
7175.0129879825
 20
4801.3532577758
 30
0.0
 11
7174.0642584225
 21
4803.4627184755
 31
0.0
  0
LINE
  5
11B
330
1F
100
AcDbEntity
  8
0
  6
SLD-Plná
 62
     7
370
    25
100
AcDbLine
 10
7171.8310074672
 20
4801.3532577758
 30
0.0
 11
7170.8822779071
 21
4803.4627184755
 31
0.0
  0
LINE
  5
11C
330
1F
100
AcDbEntity
  8
0
  6
SLD-Plná
 62
     7
370
    25
100
AcDbLine
 10
7178.9291742963
 20
4803.4447707691
 30
0.0
 11
7177.9804447362
 21
4805.5542314689
 31
0.0
  0
LINE
  5
11D
330
1F
100
AcDbEntity
  8
0
  6
SLD-Plná
 62
     7
370
    25
100
AcDbLine
 10
7179.6633800947
 20
4805.5362837625
 30
0.0
 11
7178.7146505347
 21
4807.6457444623
 31
0.0
  0
SPLINE
  5
11E
330
1F
100
AcDbEntity
  8
0
  6
SLD-Plná
 62
     7
370
    25
100
AcDbSpline
210
0.0
220
0.0
230
1.0
 70
     8
 71
     3
 72
     9
 73
     5
 74
     0
 42
0.00000001
 43
0.00000001
 40
0.0
 40
0.0
 40
0.0
 40
0.0
 40
0.2745176487104908
 40
1.0
 40
1.0
 40
1.0
 40
1.0
 10
7188.533255058145
 20
4807.679157629274
 30
0.0
 10
7188.510746927315
 20
4807.683782395699
 30
0.0
 10
7188.428755365261
 20
4807.700629277661
 30
0.0
 10
7188.359746711842
 20
4807.761974888766
 30
0.0
 10
7188.3096821517
 20
4807.806480046952
 30
0.0
  0
LINE
  5
11F
330
1F
100
AcDbEntity
  8
0
  6
SLD-Plná
 62
     7
370
    25
100
AcDbLine
 10
7188.5332550581
 20
4807.6791576293
 30
0.0
 11
7191.790387938
 21
4807.6791576293
 31
0.0
  0
SPLINE
  5
120
330
1F
100
AcDbEntity
  8
0
  6
SLD-Plná
 62
     7
370
    25
100
AcDbSpline
210
0.0
220
0.0
230
1.0
 70
     8
 71
     3
 72
    14
 73
    10
 74
     0
 42
0.00000001
 43
0.00000001
 40
0.0
 40
0.0
 40
0.0
 40
0.0
 40
0.2638750683510346
 40
0.5488124146961453
 40
0.6682181204226141
 40
0.788915379317146
 40
0.8691421855414653
 40
0.9492569129261532
 40
0.9999999999999999
 40
0.9999999999999999
 40
0.9999999999999999
 40
0.9999999999999999
 10
7191.844921317938
 20
4807.918882248524
 30
0.0
 10
7191.848948062983
 20
4807.893994358826
 30
0.0
 10
7191.857322964353
 20
4807.842232049761
 30
0.0
 10
7191.859670764215
 20
4807.777685948113
 30
0.0
 10
7191.851227366627
 20
4807.72890516398
 30
0.0
 10
7191.83894189994
 20
4807.701806731065
 30
0.0
 10
7191.821080157922
 20
4807.685721718779
 30
0.0
 10
7191.804855540317
 20
4807.679831982195
 30
0.0
 10
7191.794430488444
 20
4807.679346057573
 30
0.0
 10
7191.790387938007
 20
4807.679157629274
 30
0.0
  0
SPLINE
  5
121
330
1F
100
AcDbEntity
  8
0
  6
SLD-Plná
 62
     7
370
    25
100
AcDbSpline
210
0.0
220
0.0
230
1.0
 70
     8
 71
     3
 72
    15
 73
    11
 74
     0
 42
0.00000001
 43
0.00000001
 40
0.0
 40
0.0
 40
0.0
 40
0.0
 40
0.0295044629456739
 40
0.4406843821135055
 40
0.5393408961189508
 40
0.6401404393324279
 40
0.7391251377879866
 40
0.8415750696715668
 40
0.932127094459219
 40
1.0
 40
1.0
 40
1.0
 40
1.0
 10
7191.844921317938
 20
4807.918882248524
 30
0.0
 10
7192.031166636069
 20
4807.838970871383
 30
0.0
 10
7194.812962837317
 20
4806.645399040425
 30
0.0
 10
7198.214049648484
 20
4805.187218066048
 30
0.0
 10
7202.017477087385
 20
4803.521471132052
 30
0.0
 10
7203.562100184986
 20
4802.688553788458
 30
0.0
 10
7204.80047685565
 20
4801.86220276003
 30
0.0
 10
7205.607313945465
 20
4801.109280295756
 30
0.0
 10
7206.030719823496
 20
4800.48484691763
 30
0.0
 10
7206.020799298464
 20
4800.166251671161
 30
0.0
 10
7206.016549116016
 20
4800.029758096415
 30
0.0
  0
SPLINE
  5
122
330
1F
100
AcDbEntity
  8
0
  6
SLD-Plná
 62
     7
370
    25
100
AcDbSpline
210
0.0
220
0.0
230
1.0
 70
     8
 71
     3
 72
     9
 73
     5
 74
     0
 42
0.00000001
 43
0.00000001
 40
0.0
 40
0.0
 40
0.0
 40
0.0
 40
0.2100715338975978
 40
1.0
 40
1.0
 40
1.0
 40
1.0
 10
7175.275474074939
 20
4807.806480046949
 30
0.0
 10
7175.235675931442
 20
4807.76404606298
 30
0.0
 10
7175.046225496351
 20
4807.562048280688
 30
0.0
 10
7174.851347116229
 20
4807.359586738001
 30
0.0
 10
7174.697407136342
 20
4807.199656602143
 30
0.0
  0
SPLINE
  5
123
330
1F
100
AcDbEntity
  8
0
  6
SLD-Plná
 62
     7
370
    25
100
AcDbSpline
210
0.0
220
0.0
230
1.0
 70
     8
 71
     3
 72
    20
 73
    16
 74
     0
 42
0.00000001
 43
0.00000001
 40
0.0
 40
0.0
 40
0.0
 40
0.0
 40
0.03056827637051
 40
0.1149353036938836
 40
0.1992514267911719
 40
0.2837449540637558
 40
0.3634275345022902
 40
0.4388930072377885
 40
0.5135070492170385
 40
0.5907055665840266
 40
0.6725237984619828
 40
0.752235543283905
 40
0.8325948716891101
 40
0.9930841475579885
 40
1.0
 40
1.0
 40
1.0
 40
1.0
 10
7170.974432792472
 20
4803.30558674142
 30
0.0
 10
7170.790980183127
 20
4803.117512552983
 30
0.0
 10
7170.101206866736
 20
4802.410362313204
 30
0.0
 10
7169.187071317893
 20
4801.198968299817
 30
0.0
 10
7168.975477352944
 20
4799.900702202351
 30
0.0
 10
7169.674214460784
 20
4799.003030811297
 30
0.0
 10
7171.200848788929
 20
4798.63370855635
 30
0.0
 10
7173.271797787022
 20
4798.788102893546
 30
0.0
 10
7175.659266928299
 20
4799.402013697072
 30
0.0
 10
7178.185542906554
 20
4800.419641985552
 30
0.0
 10
7180.602466447574
 20
4801.749125284015
 30
0.0
 10
7182.570172680503
 20
4803.241100798786
 30
0.0
 10
7184.950225194455
 20
4805.217444916105
 30
0.0
 10
7186.93661067689
 20
4806.736705216979
 30
0.0
 10
7188.255208159693
 20
4807.764038770874
 30
0.0
 10
7188.3096821517
 20
4807.806480046952
 30
0.0
  0
LINE
  5
124
330
1F
100
AcDbEntity
  8
0
  6
SLD-Plná
 62
     7
370
    25
100
AcDbLine
 10
7193.3182947608
 20
4767.6791576293
 30
0.0
 11
7169.8455765194
 21
4767.6791576293
 31
0.0
  0
LINE
  5
125
330
1F
100
AcDbEntity
  8
0
  6
SLD-Plná
 62
     7
370
    25
100
AcDbLine
 10
7200.035809182
 20
4767.6791576293
 30
0.0
 11
7204.0630909407
 21
4767.6791576293
 31
0.0
  0
SPLINE
  5
126
330
1F
100
AcDbEntity
  8
0
  6
SLD-Plná
 62
     7
370
    25
100
AcDbSpline
210
0.0
220
0.0
230
1.0
 70
    11
 71
     3
 72
    31
 73
    27
 74
     0
 42
0.00000001
 43
0.00000001
 40
0.0
 40
0.0
 40
0.0
 40
0.0
 40
0.0302097299014326
 40
0.0607814190922798
 40
0.0915836391000739
 40
0.1228445813323598
 40
0.18595963384937
 40
0.2498986092185503
 40
0.3139721447263835
 40
0.3772043118112057
 40
0.4083553921470995
 40
0.439249734494645
 40
0.4697470228713227
 40
0.5000858777246222
 40
0.5303353899933021
 40
0.5606440833814385
 40
0.6221362150433286
 40
0.685254531395693
 40
0.7173944480393776
 40
0.7499369858360032
 40
0.7823530090026676
 40
0.814740991310952
 40
0.8780079086940453
 40
0.939499731897842
 40
0.9698536100702043
 40
1.0
 40
1.0
 40
1.0
 40
1.0
 10
7177.127458596996
 20
4779.710948024464
 30
0.0
 10
7177.131263605109
 20
4779.414999379366
 30
0.0
 10
7177.138919211216
 20
4778.819556166658
 30
0.0
 10
7176.91005804601
 20
4777.957061609189
 30
0.0
 10
7176.531575019952
 20
4777.16400167861
 30
0.0
 10
7175.847559999925
 20
4776.237236183223
 30
0.0
 10
7174.750065238209
 20
4775.38695845255
 30
0.0
 10
7173.339850983223
 20
4775.019576281375
 30
0.0
 10
7172.085310143382
 20
4775.365155522903
 30
0.0
 10
7171.301945884269
 20
4776.201486297948
 30
0.0
 10
7170.85838210544
 20
4777.119227761881
 30
0.0
 10
7170.611610146895
 20
4777.90587911797
 30
0.0
 10
7170.446110428026
 20
4778.765303710944
 30
0.0
 10
7170.357750003309
 20
4779.659075770836
 30
0.0
 10
7170.343899526838
 20
4780.542915639224
 30
0.0
 10
7170.42454987944
 20
4781.656752468288
 30
0.0
 10
7170.72309115648
 20
4782.857492755174
 30
0.0
 10
7171.33910061147
 20
4783.656112427212
 30
0.0
 10
7172.046481170037
 20
4784.000551943532
 30
0.0
 10
7172.680264258407
 20
4784.093607583216
 30
0.0
 10
7173.389635236257
 20
4784.011409379185
 30
0.0
 10
7174.371320266431
 20
4783.679575683221
 30
0.0
 10
7175.585224487837
 20
4782.89189612242
 30
0.0
 10
7176.532718556984
 20
4781.699707457004
 30
0.0
 10
7177.003834349975
 20
4780.592644227278
 30
0.0
 10
7177.086344839066
 20
4780.004174030881
 30
0.0
 10
7177.127458596996
 20
4779.710948024464
 30
0.0
  0
SPLINE
  5
127
330
1F
100
AcDbEntity
  8
0
  6
SLD-Plná
 62
     7
370
    25
100
AcDbSpline
210
0.0
220
0.0
230
1.0
 70
     8
 71
     3
 72
    10
 73
     6
 74
     0
 42
0.00000001
 43
0.00000001
 40
0.0
 40
0.0
 40
0.0
 40
0.0
 40
0.4848451888660955
 40
0.9696904335415705
 40
0.9999999999999999
 40
0.9999999999999999
 40
0.9999999999999999
 40
0.9999999999999999
 10
7175.434724726396
 20
4807.679157629274
 30
0.0
 10
7175.399369356496
 20
4807.682560771269
 30
0.0
 10
7175.328658612627
 20
4807.68936705565
 30
0.0
 10
7175.279883352129
 20
4807.716670769589
 30
0.0
 10
7175.279049523112
 20
4807.740759718473
 30
0.0
 10
7175.27900046408
 20
4807.742177012035
 30
0.0
  0
LINE
  5
128
330
1F
100
AcDbEntity
  8
0
  6
SLD-Plná
 62
     7
370
    25
100
AcDbLine
 10
7175.4347247264
 20
4807.6791576293
 30
0.0
 11
7187.8673354025
 21
4807.6791576293
 31
0.0
  0
SPLINE
  5
129
330
1F
100
AcDbEntity
  8
0
  6
SLD-Plná
 62
     7
370
    25
100
AcDbSpline
210
0.0
220
0.0
230
1.0
 70
     8
 71
     3
 72
    10
 73
     6
 74
     0
 42
0.00000001
 43
0.00000001
 40
0.0
 40
0.0
 40
0.0
 40
0.0
 40
0.3315932038060053
 40
0.6631863364244618
 40
1.0
 40
1.0
 40
1.0
 40
1.0
 10
7188.3096821517
 20
4807.806480046952
 30
0.0
 10
7188.258782806734
 20
4807.782483716087
 30
0.0
 10
7188.156984127727
 20
4807.734491059509
 30
0.0
 10
7187.997852985955
 20
4807.688481185084
 30
0.0
 10
7187.911067207793
 20
4807.682281621588
 30
0.0
 10
7187.867335402468
 20
4807.679157629274
 30
0.0
  0
LWPOLYLINE
  5
12A
330
1F
100
AcDbEntity
  8
0
  6
SLD-Plná
 62
     7
370
    25
100
AcDbPolyline
 90
       20
 70
   128
 43
0.0
 10
7180.6167233218
 20
4806.4479529694
 10
7180.770554019
 20
4806.4172835295
 10
7181.4653906354
 20
4806.1402590349
 10
7181.8621870305
 20
4805.6951757556
 10
7181.939551808
 20
4805.1060282467
 10
7181.6933142126
 20
4804.4045776026
 10
7181.1367489769
 20
4803.6286392092
 10
7180.2998606768
 20
4802.8200441062
 10
7179.2277661771
 20
4802.0223838648
 10
7177.9782623699
 20
4801.2786605551
 10
7176.6187103288
 20
4800.6289684933
 10
7175.2224038562
 20
4800.1083327465
 10
7173.8646181955
 20
4799.7448209227
 10
7172.6185519232
 20
4799.5580300383
 10
7171.5513807945
 20
4799.5580300383
 10
7170.7206362811
 20
4799.7448209227
 10
7170.1711040349
 20
4800.1083327465
 10
7169.9324094814
 20
4800.6289684933
 10
7170.0174207058
 20
4801.2786605551
 10
7170.2693224066
 20
4801.794211318
  0
SPLINE
  5
12B
330
1F
100
AcDbEntity
  8
0
  6
SLD-Plná
 62
     7
370
    25
100
AcDbSpline
210
0.0
220
0.0
230
1.0
 70
     8
 71
     3
 72
    10
 73
     6
 74
     0
 42
0.00000001
 43
0.00000001
 40
0.0
 40
0.0
 40
0.0
 40
0.0
 40
0.5016917126543151
 40
0.8997304629993751
 40
0.9999999999999999
 40
0.9999999999999999
 40
0.9999999999999999
 40
0.9999999999999999
 10
7191.790387938007
 20
4807.679157629274
 30
0.0
 10
7190.062954059792
 20
4811.33102677025
 30
0.0
 10
7186.964986037112
 20
4817.880263742174
 30
0.0
 10
7183.516790806647
 20
4825.159988349526
 30
0.0
 10
7181.797160916378
 20
4828.787456682445
 30
0.0
 10
7181.451137185108
 20
4829.517375448523
 30
0.0
  0
SPLINE
  5
12C
330
1F
100
AcDbEntity
  8
0
  6
SLD-Plná
 62
     7
370
    25
100
AcDbSpline
210
0.0
220
0.0
230
1.0
 70
     8
 71
     3
 72
    10
 73
     6
 74
     0
 42
0.00000001
 43
0.00000001
 40
0.0
 40
0.0
 40
0.0
 40
0.0
 40
0.4843056922161008
 40
0.9172394406311302
 40
1.0
 40
1.0
 40
1.0
 40
1.0
 10
7179.525829805736
 20
4827.777206880569
 30
0.0
 10
7180.981852032838
 20
4824.53245144177
 30
0.0
 10
7183.739451281823
 20
4818.387122754735
 30
0.0
 10
7186.739194555964
 20
4811.687890189287
 30
0.0
 10
7188.285153724441
 20
4808.233526834433
 30
0.0
 10
7188.533255058145
 20
4807.679157629274
 30
0.0
  0
SPLINE
  5
12D
330
1F
100
AcDbEntity
  8
0
  6
SLD-Plná
 62
     7
370
    25
100
AcDbSpline
210
0.0
220
0.0
230
1.0
 70
     8
 71
     3
 72
     9
 73
     5
 74
     0
 42
0.00000001
 43
0.00000001
 40
0.0
 40
0.0
 40
0.0
 40
0.0
 40
0.4999269137913841
 40
1.0
 40
1.0
 40
1.0
 40
1.0
 10
7181.451137185108
 20
4829.517375448523
 30
0.0
 10
7181.130379700183
 20
4829.227514406932
 30
0.0
 10
7180.48877094483
 20
4828.64770757198
 30
0.0
 10
7179.846841462895
 20
4828.067402052593
 30
0.0
 10
7179.525829805736
 20
4827.777206880569
 30
0.0
  0
SPLINE
  5
12E
330
1F
100
AcDbEntity
  8
0
  6
SLD-Plná
 62
     7
370
    25
100
AcDbSpline
210
0.0
220
0.0
230
1.0
 70
     8
 71
     3
 72
    11
 73
     7
 74
     0
 42
0.00000001
 43
0.00000001
 40
0.0
 40
0.0
 40
0.0
 40
0.0
 40
0.0731661441439787
 40
0.5106287378182015
 40
0.9480913321326386
 40
1.0
 40
1.0
 40
1.0
 40
1.0
 10
7187.867335402468
 20
4807.679157629274
 30
0.0
 10
7187.648269374796
 20
4808.162760828758
 30
0.0
 10
7186.119400927272
 20
4811.537842217107
 30
0.0
 10
7183.279165186509
 20
4817.804394561187
 30
0.0
 10
7180.500194166865
 20
4823.930429718504
 30
0.0
 10
7179.032084328376
 20
4827.164991269745
 30
0.0
 10
7178.876358743554
 20
4827.508088207052
 30
0.0
  0
ARC
  5
12F
330
1F
100
AcDbEntity
  8
0
  6
SLD-Plná
 62
     7
370
    25
100
AcDbCircle
 10
7178.792237092
 20
4828.6293531678
 30
0.0
 40
1.124416099326136
100
AcDbArc
 50
274.2905140826
 51
310.7243871141
  0
ARC
  5
130
330
1F
100
AcDbEntity
  8
0
  6
SLD-Plná
 62
     7
370
    25
100
AcDbCircle
 10
7179.4450518736
 20
4827.7722866779
 30
0.0
 40
0.6270667494037295
100
AcDbArc
 50
137.202507828
 51
204.9182255192
  0
ARC
  5
131
330
1F
100
AcDbEntity
  8
0
  6
SLD-Plná
 62
     7
370
    25
100
AcDbCircle
 10
7178.8859330764
 20
4827.5132304422
 30
0.0
 40
0.6922076163912393
100
AcDbArc
 50
22.4176041944
 51
81.7771093178
  0
SPLINE
  5
132
330
1F
100
AcDbEntity
  8
0
  6
SLD-Plná
 62
     7
370
    25
100
AcDbSpline
210
0.0
220
0.0
230
1.0
 70
     8
 71
     3
 72
    10
 73
     6
 74
     0
 42
0.00000001
 43
0.00000001
 40
0.0
 40
0.0
 40
0.0
 40
0.0
 40
0.5000680325356542
 40
0.899259468780018
 40
1.0
 40
1.0
 40
1.0
 40
1.0
 10
7178.984935624637
 20
4828.198321589168
 30
0.0
 10
7179.306892003136
 20
4828.486301472418
 30
0.0
 10
7179.885857869905
 20
4829.004168282495
 30
0.0
 10
7180.529300559595
 20
4829.580051012555
 30
0.0
 10
7180.850909960088
 20
4829.867953403494
 30
0.0
 10
7180.915716981763
 20
4829.925968176884
 30
0.0
  0
ARC
  5
133
330
1F
100
AcDbEntity
  8
0
  6
SLD-Plná
 62
     7
370
    25
100
AcDbCircle
 10
7180.8188083813
 20
4829.2438752047
 30
0.0
 40
0.6889427403784024
100
AcDbArc
 50
23.3898591548
 51
81.9137997795
  0
SPLINE
  5
134
330
1F
100
AcDbEntity
  8
0
  6
SLD-Plná
 62
     7
370
    25
100
AcDbSpline
210
0.0
220
0.0
230
1.0
 70
     8
 71
     3
 72
    11
 73
     7
 74
     0
 42
0.00000001
 43
0.00000001
 40
0.0
 40
0.0
 40
0.0
 40
0.0
 40
0.0518421197658189
 40
0.4893712621816755
 40
0.9269004039568697
 40
0.9999999999999999
 40
0.9999999999999999
 40
0.9999999999999999
 40
0.9999999999999999
 10
7166.589585656729
 20
4827.508088207052
 30
0.0
 10
7166.742279625042
 20
4827.165431127922
 30
0.0
 10
7168.183656643169
 20
4823.930869577068
 30
0.0
 10
7170.9152478644
 20
4817.804394562228
 30
0.0
 10
7173.711970174032
 20
4811.537402357214
 30
0.0
 10
7175.218986249173
 20
4808.1623209686
 30
0.0
 10
7175.434724726396
 20
4807.679157629274
 30
0.0
  0
LINE
  5
135
330
1F
100
AcDbEntity
  8
0
  6
SLD-Plná
 62
     7
370
    25
100
AcDbLine
 10
7178.8763587436
 20
4827.5080882071
 30
0.0
 11
7166.5895856567
 21
4827.5080882071
 31
0.0
  0
LINE
  5
136
330
1F
100
AcDbEntity
  8
0
  6
SLD-Plná
 62
     7
370
    25
100
AcDbLine
 10
7166.6981625378
 20
4828.1983215892
 30
0.0
 11
7178.9849356246
 21
4828.1983215892
 31
0.0
  0
ARC
  5
137
330
1F
100
AcDbEntity
  8
0
  6
SLD-Plná
 62
     7
370
    25
100
AcDbCircle
 10
7167.1582787868
 20
4827.7722866779
 30
0.0
 40
0.627066749403762
100
AcDbArc
 50
137.202507828
 51
204.9182255192
  0
SPLINE
  5
138
330
1F
100
AcDbEntity
  8
0
  6
SLD-Plná
 62
     7
370
    25
100
AcDbSpline
210
0.0
220
0.0
230
1.0
 70
     8
 71
     3
 72
    10
 73
     6
 74
     0
 42
0.00000001
 43
0.00000001
 40
0.0
 40
0.0
 40
0.0
 40
0.0
 40
0.4999319656265337
 40
0.8991841286565707
 40
1.0
 40
1.0
 40
1.0
 40
1.0
 10
7168.608731480502
 20
4829.925968176884
 30
0.0
 10
7168.290232595437
 20
4829.638065878235
 30
0.0
 10
7167.717376362717
 20
4829.12024106336
 30
0.0
 10
7167.080650284086
 20
4828.544359276739
 30
0.0
 10
7166.762336057941
 20
4828.256379544554
 30
0.0
 10
7166.698162537812
 20
4828.198321589168
 30
0.0
  0
LINE
  5
139
330
1F
100
AcDbEntity
  8
0
  6
SLD-Plná
 62
     7
370
    25
100
AcDbLine
 10
7180.9157169818
 20
4829.9259681769
 30
0.0
 11
7168.6087314805
 21
4829.9259681769
 31
0.0
  0
ARC
  5
13A
330
1F
100
AcDbEntity
  8
0
  6
SLD-Plná
 62
     7
370
    25
100
AcDbCircle
 10
7171.6799866157
 20
4800.6736007931
 30
0.0
 40
1.155908212732651
100
AcDbArc
 50
207.4957989516
 51
248.543216998
  0
ARC
  5
13B
330
1F
100
AcDbEntity
  8
0
  6
SLD-Plná
 62
     7
370
    25
100
AcDbCircle
 10
7180.537663078
 20
4804.6491373979
 30
0.0
 40
1.13856996506004
100
AcDbArc
 50
339.5614518629
 51
21.2628272159
  0
SPLINE
  5
13C
330
1F
100
AcDbEntity
  8
0
  6
SLD-Plná
 62
     7
370
    25
100
AcDbSpline
210
0.0
220
0.0
230
1.0
 70
    11
 71
     3
 72
    32
 73
    28
 74
     0
 42
0.00000001
 43
0.00000001
 40
0.0
 40
0.0
 40
0.0
 40
0.0
 40
0.0312081936375443
 40
0.0625707504755662
 40
0.1253192951901061
 40
0.188008198528774
 40
0.2193969850655176
 40
0.2505336662319821
 40
0.2818033673201799
 40
0.3129731347483465
 40
0.3755708655357483
 40
0.438361531712772
 40
0.4696872464267188
 40
0.5009997607374991
 40
0.5322782115271386
 40
0.5634724284470396
 40
0.6256265595499735
 40
0.6879020553911451
 40
0.7191630704897732
 40
0.7504261681134278
 40
0.7815264928422142
 40
0.8128349537779554
 40
0.875032469987002
 40
0.9063513957805224
 40
0.9375560899602678
 40
0.9688430363721163
 40
1.0
 40
1.0
 40
1.0
 40
1.0
 10
7177.07659098608
 20
4779.757254102364
 30
0.0
 10
7177.037583599412
 20
4780.02011427876
 30
0.0
 10
7176.959375886197
 20
4780.547134800943
 30
0.0
 10
7176.54200382775
 20
4781.53533698281
 30
0.0
 10
7175.724865318523
 20
4782.600006281267
 30
0.0
 10
7174.673730262241
 20
4783.324912992974
 30
0.0
 10
7173.832512160919
 20
4783.629975516086
 30
0.0
 10
7173.23509361779
 20
4783.705763150978
 30
0.0
 10
7172.709168973731
 20
4783.621428994441
 30
0.0
 10
7172.129508324369
 20
4783.306540099957
 30
0.0
 10
7171.648600491622
 20
4782.573618167564
 30
0.0
 10
7171.439017192407
 20
4781.502850288844
 30
0.0
 10
7171.392289985371
 20
4780.509148408863
 30
0.0
 10
7171.413852861505
 20
4779.719028646668
 30
0.0
 10
7171.491606468833
 20
4778.920451311233
 30
0.0
 10
7171.673290941865
 20
4777.900606418971
 30
0.0
 10
7172.062077953922
 20
4776.780523633032
 30
0.0
 10
7172.703913904943
 20
4776.034790012118
 30
0.0
 10
7173.356344527575
 20
4775.728139368996
 30
0.0
 10
7173.902398890585
 20
4775.652651978984
 30
0.0
 10
7174.484441099899
 20
4775.736702348002
 30
0.0
 10
7175.267413103313
 20
4776.052594579049
 30
0.0
 10
7176.015300580551
 20
4776.662614030804
 30
0.0
 10
7176.591206013284
 20
4777.484491743876
 30
0.0
 10
7176.909426044527
 20
4778.192231261502
 30
0.0
 10
7177.096936135233
 20
4778.962327488772
 30
0.0
 10
7177.08336328475
 20
4779.492646533909
 30
0.0
 10
7177.07659098608
 20
4779.757254102364
 30
0.0
  0
LINE
  5
13D
330
1F
100
AcDbEntity
  8
0
  6
SLD-Plná
 62
     7
370
    25
100
AcDbLine
 10
7222.214294953
 20
4606.6791576293
 30
0.0
 11
6875.214294953
 21
4606.6791576293
 31
0.0
  0
ARC
  5
13E
330
1F
100
AcDbEntity
  8
0
  6
SLD-Plná
 62
     7
370
    25
100
AcDbCircle
 10
6875.214294953
 20
4608.1791576293
 30
0.0
 40
1.5
100
AcDbArc
 50
180.0
 51
270.0
  0
LINE
  5
13F
330
1F
100
AcDbEntity
  8
0
  6
SLD-Plná
 62
     7
370
    25
100
AcDbLine
 10
6873.714294953
 20
4608.1791576293
 30
0.0
 11
7223.714294953
 21
4608.1791576293
 31
0.0
  0
ARC
  5
140
330
1F
100
AcDbEntity
  8
0
  6
SLD-Plná
 62
     7
370
    25
100
AcDbCircle
 10
7222.214294953
 20
4608.1791576293
 30
0.0
 40
1.5
100
AcDbArc
 50
270.0
 51
0.0
  0
LINE
  5
141
330
1F
100
AcDbEntity
  8
0
  6
SLD-Plná
 62
     7
370
    25
100
AcDbLine
 10
6873.714294953
 20
4765.1791576293
 30
0.0
 11
6873.714294953
 21
4608.1791576293
 31
0.0
  0
LINE
  5
142
330
1F
100
AcDbEntity
  8
0
  6
SLD-Plná
 62
     7
370
    25
100
AcDbLine
 10
7223.714294953
 20
4765.1791576293
 30
0.0
 11
6873.714294953
 21
4765.1791576293
 31
0.0
  0
LINE
  5
143
330
1F
100
AcDbEntity
  8
0
  6
SLD-Plná
 62
     7
370
    25
100
AcDbLine
 10
7223.714294953
 20
4765.1791576293
 30
0.0
 11
7223.714294953
 21
4608.1791576293
 31
0.0
  0
ARC
  5
144
330
1F
100
AcDbEntity
  8
0
  6
SLD-Plná
 62
     7
370
    25
100
AcDbCircle
 10
6875.214294953
 20
4765.1791576293
 30
0.0
 40
1.500000000000909
100
AcDbArc
 50
90.0
 51
180.0
  0
LINE
  5
145
330
1F
100
AcDbEntity
  8
0
  6
SLD-Plná
 62
     7
370
    25
100
AcDbLine
 10
6875.214294953
 20
4766.6791576293
 30
0.0
 11
7222.214294953
 21
4766.6791576293
 31
0.0
  0
ARC
  5
146
330
1F
100
AcDbEntity
  8
0
  6
SLD-Plná
 62
     7
370
    25
100
AcDbCircle
 10
7222.214294953
 20
4765.1791576293
 30
0.0
 40
1.500000000000909
100
AcDbArc
 50
0.0
 51
90.0
  0
LINE
  5
147
330
1F
100
AcDbEntity
  8
0
  6
SLD-Plná
 62
     7
370
    25
100
AcDbLine
 10
7222.114294953
 20
4768.1791576293
 30
0.0
 11
7222.114294953
 21
4766.6791576293
 31
0.0
  0
LINE
  5
148
330
1F
100
AcDbEntity
  8
0
  6
SLD-Plná
 62
     7
370
    25
100
AcDbLine
 10
6875.314294953
 20
4768.1791576293
 30
0.0
 11
6875.314294953
 21
4766.6791576293
 31
0.0
  0
LINE
  5
149
330
1F
100
AcDbEntity
  8
0
  6
SLD-Plná
 62
     7
370
    25
100
AcDbLine
 10
7223.714294953
 20
4809.1261220652
 30
0.0
 11
7208.6198065389
 21
4809.1261220652
 31
0.0
  0
LINE
  5
14A
330
1F
100
AcDbEntity
  8
0
  6
SLD-Plná
 62
     7
370
    25
100
AcDbLine
 10
7174.6626531722
 20
4809.1261220652
 30
0.0
 11
6924.2504653949
 21
4809.1261220652
 31
0.0
  0
LINE
  5
14B
330
1F
100
AcDbEntity
  8
0
  6
SLD-Plná
 62
     7
370
    25
100
AcDbLine
 10
6889.4176808867
 20
4809.1261220652
 30
0.0
 11
6873.714294953
 21
4809.1261220652
 31
0.0
  0
LINE
  5
14C
330
1F
100
AcDbEntity
  8
0
  6
SLD-Plná
 62
     7
370
    25
100
AcDbLine
 10
7223.714294953
 20
4807.6291576293
 30
0.0
 11
7223.714294953
 21
4809.1261220652
 31
0.0
  0
LINE
  5
14D
330
1F
100
AcDbEntity
  8
0
  6
SLD-Plná
 62
     7
370
    25
100
AcDbLine
 10
6873.714294953
 20
4807.6291576293
 30
0.0
 11
6873.714294953
 21
4809.1261220652
 31
0.0
  0
LINE
  5
14E
330
1F
100
AcDbEntity
  8
0
  6
SLD-Plná
 62
     7
370
    25
100
AcDbLine
 10
7223.714294953
 20
4766.6791576293
 30
0.0
 11
7223.714294953
 21
4807.6291576293
 31
0.0
  0
LINE
  5
14F
330
1F
100
AcDbEntity
  8
0
  6
SLD-Plná
 62
     7
370
    25
100
AcDbLine
 10
7223.714294953
 20
4766.6791576293
 30
0.0
 11
7222.214294953
 21
4766.6791576293
 31
0.0
  0
LINE
  5
150
330
1F
100
AcDbEntity
  8
0
  6
SLD-Plná
 62
     7
370
    25
100
AcDbLine
 10
6873.714294953
 20
4766.6791576293
 30
0.0
 11
6873.714294953
 21
4807.6291576293
 31
0.0
  0
LINE
  5
151
330
1F
100
AcDbEntity
  8
0
  6
SLD-Plná
 62
     7
370
    25
100
AcDbLine
 10
6875.214294953
 20
4766.6791576293
 30
0.0
 11
6873.714294953
 21
4766.6791576293
 31
0.0
  0
LWPOLYLINE
  5
152
330
1F
100
AcDbEntity
  8
0
  6
SLD-Plná
 62
     8
370
    25
100
AcDbPolyline
 90
       14
 70
   128
 43
0.0
 10
6958.8660047733
 20
5009.9442341401
 10
6958.8554600199
 20
5010.0277931775
 10
6959.0365362058
 20
5010.4191532372
 10
6959.5633525727
 20
5010.8705325278
 10
6960.3968375607
 20
5011.3484543123
 10
6961.4751754011
 20
5011.8174733181
 10
6962.7183907093
 20
5012.2428045514
 10
6964.0342798934
 20
5012.5929031402
 10
6965.3252494723
 20
5012.8418038738
 10
6966.4955541381
 20
5012.9710469235
 10
6967.4583977475
 20
5012.9710469235
 10
6968.1423705949
 20
5012.8418038738
 10
6968.496745543
 20
5012.5929031402
 10
6968.5305544125
 20
5012.5125955381
  0
LINE
  5
153
330
1F
100
AcDbEntity
  8
0
  6
SLD-Plná
 62
     8
370
    25
100
AcDbLine
 10
6920.345184578
 20
4999.1791576293
 30
0.0
 11
6911.8096511333
 21
4999.1791576293
 31
0.0
  0
LINE
  5
154
330
1F
100
AcDbEntity
  8
0
  6
SLD-Plná
 62
     8
370
    25
100
AcDbLine
 10
6921.8096479511
 20
4999.1791576293
 30
0.0
 11
6920.345184578
 21
4999.1791576293
 31
0.0
  0
SPLINE
  5
155
330
1F
100
AcDbEntity
  8
0
  6
SLD-Plná
 62
     8
370
    25
100
AcDbSpline
210
0.0
220
0.0
230
1.0
 70
     8
 71
     3
 72
    15
 73
    11
 74
     0
 42
0.00000001
 43
0.00000001
 40
0.0
 40
0.0
 40
0.0
 40
0.0
 40
0.054352415724004
 40
0.2116658214187657
 40
0.3689450042928519
 40
0.526133165684004
 40
0.6831488641597188
 40
0.8415271614455924
 40
0.8979048691775197
 40
1.0
 40
1.0
 40
1.0
 40
1.0
 10
6925.08055305127
 20
4803.670250587124
 30
0.0
 10
6925.108161253448
 20
4803.670274009557
 30
0.0
 10
6925.21567648923
 20
4803.670365224057
 30
0.0
 10
6924.468534346311
 20
4803.669834345054
 30
0.0
 10
6922.918762152104
 20
4803.66960077313
 30
0.0
 10
6920.664553828628
 20
4803.669890455975
 30
0.0
 10
6918.02947243054
 20
4803.670375995626
 30
0.0
 10
6915.876259383375
 20
4803.670406511697
 30
0.0
 10
6914.142906681855
 20
4803.669646213404
 30
0.0
 10
6913.354494305745
 20
4803.669222906125
 30
0.0
 10
6912.846564584694
 20
4803.668950193069
 30
0.0
  0
LWPOLYLINE
  5
156
330
1F
100
AcDbEntity
  8
0
  6
SLD-Plná
 62
     8
370
    25
100
AcDbPolyline
 90
       16
 70
   128
 43
0.0
 10
6906.8537960915
 20
4824.9538034303
 10
6905.2183135103
 20
4824.9158440595
 10
6903.3825121924
 20
4824.80300138
 10
6901.3964680123
 20
4824.6183534459
 10
6899.3143550778
 20
4824.3669369714
 10
6897.1929680021
 20
4824.0556099427
 10
6895.0901726948
 20
4823.6928645494
 10
6893.0633279301
 20
4823.2885955403
 10
6891.1677207497
 20
4822.8538303201
 10
6889.4550583759
 20
4822.4004281507
 10
6887.9720577738
 20
4821.9407566613
 10
6886.7591713339
 20
4821.4873544919
 10
6885.8494834364
 20
4821.0525892717
 10
6885.267807996
 20
4820.6483202626
 10
6885.0300116021
 20
4820.2855748693
 10
6885.0279149081
 20
4820.1796182697
  0
LWPOLYLINE
  5
157
330
1F
100
AcDbEntity
  8
0
  6
SLD-Plná
 62
     8
370
    25
100
AcDbPolyline
 90
        6
 70
   128
 43
0.0
 10
6910.7211842204
 20
4824.1615665424
 10
6910.6065184078
 20
4824.3669369714
 10
6910.146654369
 20
4824.6183534459
 10
6909.352039302
 20
4824.80300138
 10
6908.2443482346
 20
4824.9158440595
 10
6906.8537960915
 20
4824.9538034303
  0
LWPOLYLINE
  5
158
330
1F
100
AcDbEntity
  8
0
  6
SLD-Plná
 62
     8
370
    25
100
AcDbPolyline
 90
       21
 70
   128
 43
0.0
 10
7210.2582408138
 20
4815.3307807909
 10
7210.2324597651
 20
4815.8564225833
 10
7209.872166603
 20
4816.4852522715
 10
7209.1795506783
 20
4817.1731267509
 10
7208.1735047479
 20
4817.901282599
 10
7206.881471122
 20
4818.6498576223
 10
7205.3386931101
 20
4819.3984326456
 10
7203.5872536745
 20
4820.1265884937
 10
7201.6749275174
 20
4820.8144629731
 10
7199.6538779112
 20
4821.4432926613
 10
7197.5792338208
 20
4821.9959247235
 10
7195.5075861287
 20
4822.4572847978
 10
7193.4954439837
 20
4822.814788184
 10
7191.5976933781
 20
4823.0586831216
 10
7189.8661000014
 20
4823.1823167925
 10
7188.347897207
 20
4823.1823167925
 10
7187.0844976094
 20
4823.0586831216
 10
7186.1103634563
 20
4822.814788184
 10
7185.452066588
 20
4822.4572847978
 10
7185.127563627
 20
4821.9959247235
 10
7185.1199251194
 20
4821.9689344537
  0
LWPOLYLINE
  5
159
330
1F
100
AcDbEntity
  8
0
  6
SLD-Plná
 62
     8
370
    25
100
AcDbPolyline
 90
        6
 70
   128
 43
0.0
 10
7181.4511371851
 20
4829.5173754485
 10
7181.5030815192
 20
4829.5696129195
 10
7181.5396673055
 20
4829.6193189412
 10
7181.5594813697
 20
4829.6645735527
 10
7181.561758367
 20
4829.7036287344
 10
7181.5561521527
 20
4829.7205809177
  0
ARC
  5
15A
330
1F
100
AcDbEntity
  8
0
  6
SLD-Plná
 62
     8
370
    25
100
AcDbCircle
 10
7181.1111179547
 20
4829.7208113419
 30
0.0
 40
0.2833211378643098
100
AcDbArc
 50
91.1436938473
 51
133.6047975552
  0
ARC
  5
15B
330
1F
100
AcDbEntity
  8
0
  6
SLD-Plná
 62
     8
370
    25
100
AcDbCircle
 10
7168.8041324534
 20
4829.7208113419
 30
0.0
 40
0.2833211378662543
100
AcDbArc
 50
91.1436938472
 51
133.604797555
  0
ARC
  5
15C
330
1F
100
AcDbEntity
  8
0
  6
SLD-Plná
 62
     8
370
    25
100
AcDbCircle
 10
7166.5611034943
 20
4827.6643948664
 30
0.0
 40
0.1588804749813931
100
AcDbArc
 50
215.1523664539
 51
280.3271175129
  0
ARC
  5
15D
330
1F
100
AcDbEntity
  8
0
  6
SLD-Plná
 62
     8
370
    25
100
AcDbCircle
 10
7166.6901439304
 20
4827.9879656469
 30
0.0
 40
0.2105087183710805
100
AcDbArc
 50
87.816985725
 51
130.8490946248
  0
ARC
  5
15E
330
1F
100
AcDbEntity
  8
0
  6
SLD-Plná
 62
     8
370
    25
100
AcDbCircle
 10
7168.6007012618
 20
4829.7156049666
 30
0.0
 40
0.2105164237069639
100
AcDbArc
 50
87.8139031529
 51
130.7294350738
  0
LINE
  5
15F
330
1F
100
AcDbEntity
  8
0
  6
SLD-Plná
 62
     8
370
    25
100
AcDbLine
 10
6875.314294953
 20
4768.1791576293
 30
0.0
 11
6892.7746904869
 21
4768.1791576293
 31
0.0
  0
LINE
  5
160
330
1F
100
AcDbEntity
  8
0
  6
SLD-Plná
 62
     8
370
    25
100
AcDbLine
 10
6926.1827615665
 20
4768.1791576293
 30
0.0
 11
7169.8353825154
 21
4768.1791576293
 31
0.0
  0
LINE
  5
161
330
1F
100
AcDbEntity
  8
0
  6
SLD-Plná
 62
     8
370
    25
100
AcDbLine
 10
7204.0943688714
 20
4768.1791576293
 30
0.0
 11
7222.114294953
 21
4768.1791576293
 31
0.0
  0
LINE
  5
162
330
1F
100
AcDbEntity
  8
0
  6
SLD-Plná
 62
     8
370
    25
100
AcDbLine
 10
7223.714294953
 20
4807.6291576293
 30
0.0
 11
7208.2245103673
 21
4807.6291576293
 31
0.0
  0
LINE
  5
163
330
1F
100
AcDbEntity
  8
0
  6
SLD-Plná
 62
     8
370
    25
100
AcDbLine
 10
7175.1080369817
 20
4807.6291576293
 30
0.0
 11
6924.3440256721
 21
4807.6291576293
 31
0.0
  0
LINE
  5
164
330
1F
100
AcDbEntity
  8
0
  6
SLD-Plná
 62
     8
370
    25
100
AcDbLine
 10
6889.6242739166
 20
4807.6291576293
 30
0.0
 11
6873.714294953
 21
4807.6291576293
 31
0.0
  0
LINE
  5
165
330
1F
100
AcDbEntity
  8
0
  6
SLD-Plná
 62
     7
370
    25
100
AcDbLine
 10
6913.2741167662
 20
4335.2414297097
 30
0.0
 11
6960.1627456869
 21
4288.352800789
 31
0.0
  0
LINE
  5
166
330
1F
100
AcDbEntity
  8
0
  6
SLD-Plná
 62
     7
370
    25
100
AcDbLine
 10
6967.2338134988
 20
4295.4238686009
 30
0.0
 11
6920.345184578
 21
4342.3124975216
 31
0.0
  0
LINE
  5
167
330
1F
100
AcDbEntity
  8
0
  6
SLD-Plná
 62
     7
370
    25
100
AcDbLine
 10
6971.9639796047
 20
4290.693702495
 30
0.0
 11
6967.2338134988
 21
4295.4238686009
 31
0.0
  0
LINE
  5
168
330
1F
100
AcDbEntity
  8
0
  6
SLD-Plná
 62
     7
370
    25
100
AcDbLine
 10
6960.1627456869
 20
4288.352800789
 30
0.0
 11
6964.8929117928
 21
4283.6226346831
 31
0.0
  0
LINE
  5
169
330
1F
100
AcDbEntity
  8
0
  6
SLD-Plná
 62
     7
370
    25
100
AcDbLine
 10
6908.3539655344
 20
4365.6174250642
 30
0.0
 11
6907.0669377197
 21
4366.9044528789
 31
0.0
  0
LINE
  5
16A
330
1F
100
AcDbEntity
  8
0
  6
SLD-Plná
 62
     7
370
    25
100
AcDbLine
 10
6888.6821614089
 20
4348.5196765681
 30
0.0
 11
6889.9691892236
 21
4347.2326487534
 31
0.0
  0
LINE
  5
16B
330
1F
100
AcDbEntity
  8
0
  6
SLD-Plná
 62
     7
370
    25
100
AcDbLine
 10
6890.8106952783
 20
4345.9547406972
 30
0.0
 11
6896.9090544087
 21
4339.8563815667
 31
0.0
  0
LINE
  5
16C
330
1F
100
AcDbEntity
  8
0
  6
SLD-Plná
 62
     7
370
    25
100
AcDbLine
 10
6915.7302285673
 20
4358.6775640328
 30
0.0
 11
6909.6318735906
 21
4364.7759190095
 31
0.0
  0
LINE
  5
16D
330
1F
100
AcDbEntity
  8
0
  6
SLD-Plná
 62
     7
370
    25
100
AcDbLine
 10
7204.7878968986
 20
4344.5611449696
 30
0.0
 11
7206.881471122
 21
4346.654719193
 31
0.0
  0
LINE
  5
16E
330
1F
100
AcDbEntity
  8
0
  6
SLD-Plná
 62
     7
370
    25
100
AcDbLine
 10
7188.4966948112
 20
4365.0394955039
 30
0.0
 11
7186.4031205878
 21
4362.9459212804
 31
0.0
  0
SPLINE
  5
16F
330
1F
100
AcDbEntity
  8
0
  6
SLD-Plná
 62
     7
370
    25
100
AcDbSpline
210
0.0
220
0.0
230
1.0
 70
     8
 71
     3
 72
     9
 73
     5
 74
     0
 42
0.00000001
 43
0.00000001
 40
0.0
 40
0.0
 40
0.0
 40
0.0
 40
0.1732949536812874
 40
1.0
 40
1.0
 40
1.0
 40
1.0
 10
7177.543675581442
 20
4349.934638783682
 30
0.0
 10
7177.246848524188
 20
4349.598814112997
 30
0.0
 10
7175.534005472799
 20
4347.660935002553
 30
0.0
 10
7173.824774880796
 20
4345.719558078855
 30
0.0
 10
7172.411745325066
 20
4344.114611979227
 30
0.0
  0
LINE
  5
170
330
1F
100
AcDbEntity
  8
0
  6
SLD-Plná
 62
     7
370
    25
100
AcDbLine
 10
7177.605483136
 20
4350.0045825257
 30
0.0
 11
7177.5436755814
 21
4349.9346387837
 31
0.0
  0
LINE
  5
171
330
1F
100
AcDbEntity
  8
0
  6
SLD-Plná
 62
     7
370
    25
100
AcDbLine
 10
7185.9326259323
 20
4330.5477778733
 30
0.0
 11
7191.8448639234
 21
4335.7655139953
 31
0.0
  0
LINE
  5
172
330
1F
100
AcDbEntity
  8
0
  6
SLD-Plná
 62
     7
370
    25
100
AcDbLine
 10
7179.6480803753
 20
4324.8006220917
 30
0.0
 11
7183.8752089766
 21
4328.729847948
 31
0.0
  0
LINE
  5
173
330
1F
100
AcDbEntity
  8
0
  6
SLD-Plná
 62
     7
370
    25
100
AcDbLine
 10
7170.5718235662
 20
4342.0332333585
 30
0.0
 11
7166.4824682287
 21
4337.6338347134
 31
0.0
  0
ARC
  5
174
330
1F
100
AcDbEntity
  8
0
  6
SLD-Plná
 62
     7
370
    25
100
AcDbCircle
 10
7166.8879084498
 20
4337.3327059185
 30
0.0
 40
0.5000000000001027
100
AcDbArc
 50
135.5284435148
 51
225.0000000001
  0
LINE
  5
175
330
1F
100
AcDbEntity
  8
0
  6
SLD-Plná
 62
     7
370
    25
100
AcDbLine
 10
7166.5343550592
 20
4336.9791525279
 30
0.0
 11
7178.821128146
 21
4324.692379441
 31
0.0
  0
ARC
  5
176
330
1F
100
AcDbEntity
  8
0
  6
SLD-Plná
 62
     7
370
    25
100
AcDbCircle
 10
7179.1746815366
 20
4325.0459328316
 30
0.0
 40
0.5000000000013706
100
AcDbArc
 50
225.0
 51
314.4715564851
  0
LINE
  5
177
330
1F
100
AcDbEntity
  8
0
  6
SLD-Plná
 62
     7
370
    25
100
AcDbLine
 10
7202.1845098945
 20
4341.5325467325
 30
0.0
 11
7203.252717871
 21
4343.320402722
 31
0.0
  0
LINE
  5
178
330
1F
100
AcDbEntity
  8
0
  6
SLD-Plná
 62
     7
370
    25
100
AcDbLine
 10
7169.913007583
 20
4343.1176278265
 30
0.0
 11
7169.7110219823
 21
4341.1071682432
 31
0.0
  0
SPLINE
  5
179
330
1F
100
AcDbEntity
  8
0
  6
SLD-Plná
 62
     7
370
    25
100
AcDbSpline
210
0.0
220
0.0
230
1.0
 70
     8
 71
     3
 72
     9
 73
     5
 74
     0
 42
0.00000001
 43
0.00000001
 40
0.0
 40
0.0
 40
0.0
 40
0.0
 40
0.1082326339616107
 40
1.0
 40
1.0
 40
1.0
 40
1.0
 10
7185.402951116896
 20
4361.556065066441
 30
0.0
 10
7185.331259741162
 20
4361.511916392673
 30
0.0
 10
7184.66887748999
 20
4361.104011011904
 30
0.0
 10
7183.99392313785
 20
4360.706892044915
 30
0.0
 10
7183.392020873047
 20
4360.35275430972
 30
0.0
  0
LINE
  5
17A
330
1F
100
AcDbEntity
  8
0
  6
SLD-Plná
 62
     7
370
    25
100
AcDbLine
 10
7182.9379889715
 20
4327.8586776041
 30
0.0
 11
7184.9488809795
 21
4328.0699658558
 31
0.0
  0
LINE
  5
17B
330
1F
100
AcDbEntity
  8
0
  6
SLD-Plná
 62
     7
370
    25
100
AcDbLine
 10
7223.714294953
 20
4409.1815579374
 30
0.0
 11
6873.714294953
 21
4409.1815579374
 31
0.0
  0
ARC
  5
17C
330
1F
100
AcDbEntity
  8
0
  6
SLD-Plná
 62
     7
370
    25
100
AcDbCircle
 10
6916.8096506721
 20
4338.7769636157
 30
0.0
 40
5.000000000000201
100
AcDbArc
 50
45.0
 51
225.0
  0
ARC
  5
17D
330
1F
100
AcDbEntity
  8
0
  6
SLD-Plná
 62
     7
370
    25
100
AcDbCircle
 10
6968.2614031205
 20
4287.3252111673
 30
0.0
 40
5.005577533700441
100
AcDbArc
 50
227.7050292788
 51
42.2949707212
  0
ARC
  5
17E
330
1F
100
AcDbEntity
  8
0
  6
SLD-Plná
 62
     7
370
    25
100
AcDbCircle
 10
6916.8096506721
 20
4338.7769636157
 30
0.0
 40
7.00000000000006
100
AcDbArc
 50
225.0
 51
269.4153085972
  0
ARC
  5
17F
330
1F
100
AcDbEntity
  8
0
  6
SLD-Plná
 62
     7
370
    25
100
AcDbCircle
 10
6916.8096506721
 20
4338.7769636157
 30
0.0
 40
7.000000000000969
100
AcDbArc
 50
0.5846914028
 51
225.0
  0
ARC
  5
180
330
1F
100
AcDbEntity
  8
0
  6
SLD-Plná
 62
     7
370
    25
100
AcDbCircle
 10
6916.8096506721
 20
4338.7769636157
 30
0.0
 40
7.750000000000303
100
AcDbArc
 50
225.0
 51
274.8222304599
  0
ARC
  5
181
330
1F
100
AcDbEntity
  8
0
  6
SLD-Plná
 62
     7
370
    25
100
AcDbCircle
 10
6916.8096506721
 20
4338.7769636157
 30
0.0
 40
7.750000000000226
100
AcDbArc
 50
355.1777695401
 51
78.5848509237
  0
ARC
  5
182
330
1F
100
AcDbEntity
  8
0
  6
SLD-Plná
 62
     7
370
    25
100
AcDbCircle
 10
6916.8096506721
 20
4338.7769636157
 30
0.0
 40
7.750000000000022
100
AcDbArc
 50
191.3853422798
 51
225.0
  0
LINE
  5
183
330
1F
100
AcDbEntity
  8
0
  6
SLD-Plná
 62
     7
370
    25
100
AcDbLine
 10
6896.9090544079
 20
4339.8563815676
 30
0.0
 11
6903.5388177174
 21
4333.226618258
 31
0.0
  0
LINE
  5
184
330
1F
100
AcDbEntity
  8
0
  6
SLD-Plná
 62
     7
370
    25
100
AcDbLine
 10
6922.3599960298
 20
4352.0477965703
 30
0.0
 11
6915.7302327202
 21
4358.6775598799
 31
0.0
  0
ARC
  5
185
330
1F
100
AcDbEntity
  8
0
  6
SLD-Plná
 62
     7
370
    25
100
AcDbCircle
 10
6912.9494068736
 20
4342.6372074142
 30
0.0
 40
13.30858281457939
100
AcDbArc
 50
225.0
 51
292.015289608
  0
ARC
  5
186
330
1F
100
AcDbEntity
  8
0
  6
SLD-Plná
 62
     7
370
    25
100
AcDbCircle
 10
6912.9494068736
 20
4342.6372074142
 30
0.0
 40
13.30858281457981
100
AcDbArc
 50
337.06742315
 51
45.0
  0
LWPOLYLINE
  5
187
330
1F
100
AcDbEntity
  8
0
  6
SLD-Plná
 62
     7
370
    25
100
AcDbPolyline
 90
       38
 70
   128
 43
0.0
 10
6906.2999412958
 20
4349.286672992
 10
6904.6950402826
 20
4347.9281483979
 10
6902.8899329305
 20
4346.8550825021
 10
6900.9365488913
 20
4346.0983454566
 10
6898.8910834673
 20
4345.6797072085
 10
6896.8123809747
 20
4345.6112112179
 10
6894.7602418994
 20
4345.8948279897
 10
6892.7937025464
 20
4346.5223983859
 10
6890.9693366724
 20
4347.4758683487
 10
6889.3396279618
 20
4348.7278082833
 10
6887.9514601672
 20
4350.2422021571
 10
6886.8447683486
 20
4351.9754836157
 10
6886.0513900145
 20
4353.8777893073
 10
6885.5941492153
 20
4355.8943933607
 10
6885.4861999362
 20
4357.9672817488
 10
6885.7306476814
 20
4360.0368212468
 10
6886.3204601343
 20
4362.0434749714
 10
6887.2386694646
 20
4363.9295151485
 10
6888.4588604616
 20
4365.6406838359
 10
6889.9459304518
 20
4367.1277538262
 10
6891.6570991393
 20
4368.3479448232
 10
6893.5431393163
 20
4369.2661541535
 10
6895.549793041
 20
4369.8559666064
 10
6897.619332539
 20
4370.1004143516
 10
6899.6922209271
 20
4369.9924650725
 10
6901.7088249805
 20
4369.5352242732
 10
6903.611130672
 20
4368.7418459392
 10
6905.3444121307
 20
4367.6351541206
 10
6906.8588060045
 20
4366.246986326
 10
6908.1107459391
 20
4364.6172776154
 10
6909.0642159019
 20
4362.7929117414
 10
6909.6917862981
 20
4360.8263723883
 10
6909.9754030699
 20
4358.7742333131
 10
6909.9069070793
 20
4356.6955308205
 10
6909.4882688311
 20
4354.6500653965
 10
6908.7315317857
 20
4352.6966813573
 10
6907.6584658899
 20
4350.8915740051
 10
6906.2999412958
 20
4349.286672992
  0
ARC
  5
188
330
1F
100
AcDbEntity
  8
0
  6
SLD-Plná
 62
     7
370
    25
100
AcDbCircle
 10
6897.6615129939
 20
4357.7031079004
 30
0.0
 40
12.84383766338865
100
AcDbArc
 50
225.6437568633
 51
315.7002670457
  0
ARC
  5
189
330
1F
100
AcDbEntity
  8
0
  6
SLD-Plná
 62
     7
370
    25
100
AcDbCircle
 10
6897.8835063874
 20
4357.9251012939
 30
0.0
 40
12.84383766338803
100
AcDbArc
 50
314.2997329542
 51
44.3562431367
  0
ARC
  5
18A
330
1F
100
AcDbEntity
  8
0
  6
SLD-Plná
 62
     7
370
    25
100
AcDbCircle
 10
6898.9485408086
 20
4356.4160800857
 30
0.0
 40
12.84383766338677
100
AcDbArc
 50
225.6437568633
 51
315.7002670458
  0
ARC
  5
18B
330
1F
100
AcDbEntity
  8
0
  6
SLD-Plná
 62
     7
370
    25
100
AcDbCircle
 10
6899.1705342021
 20
4356.6380734792
 30
0.0
 40
12.84383766338872
100
AcDbArc
 50
314.2997329542
 51
44.3562431367
  0
ARC
  5
18C
330
1F
100
AcDbEntity
  8
0
  6
SLD-Plná
 62
     7
370
    25
100
AcDbCircle
 10
6899.901535279
 20
4355.6850790088
 30
0.0
 40
13.4639631243681
100
AcDbArc
 50
258.1449256631
 51
11.8550743369
  0
ARC
  5
18D
330
1F
100
AcDbEntity
  8
0
  6
SLD-Plná
 62
     7
370
    25
100
AcDbCircle
 10
6900.6175865917
 20
4355.7607018614
 30
0.0
 40
12.74785875249576
100
AcDbArc
 50
12.183597889
 51
57.8129719951
  0
ARC
  5
18E
330
1F
100
AcDbEntity
  8
0
  6
SLD-Plná
 62
     7
370
    25
100
AcDbCircle
 10
6899.8289283008
 20
4354.9733350856
 30
0.0
 40
12.7527057720467
100
AcDbArc
 50
212.1961884641
 51
257.8072417048
  0
SPLINE
  5
18F
330
1F
100
AcDbEntity
  8
0
  6
SLD-Plná
 62
     7
370
    25
100
AcDbSpline
210
0.0
220
0.0
230
1.0
 70
     8
 71
     3
 72
    11
 73
     7
 74
     0
 42
0.00000001
 43
0.00000001
 40
0.0
 40
0.0
 40
0.0
 40
0.0
 40
0.3003625479732404
 40
0.6070071708547338
 40
0.8011309396447021
 40
0.9999999999999999
 40
0.9999999999999999
 40
0.9999999999999999
 40
0.9999999999999999
 10
6897.135540803713
 20
4342.508297247778
 30
0.0
 10
6897.979817776557
 20
4341.899680669359
 30
0.0
 10
6899.686029753257
 20
4340.669718312554
 30
0.0
 10
6902.251658434237
 20
4338.970795774188
 30
0.0
 10
6904.646539445054
 20
4337.461619522857
 30
0.0
 10
6906.051135736696
 20
4336.614755071734
 30
0.0
 10
6906.761913959558
 20
4336.186210006397
 30
0.0
  0
SPLINE
  5
190
330
1F
100
AcDbEntity
  8
0
  6
SLD-Plná
 62
     7
370
    25
100
AcDbSpline
210
0.0
220
0.0
230
1.0
 70
     8
 71
     3
 72
    11
 73
     7
 74
     0
 42
0.00000001
 43
0.00000001
 40
0.0
 40
0.0
 40
0.0
 40
0.0
 40
0.1965730280152231
 40
0.3987007351625337
 40
0.6955183985613144
 40
1.0
 40
1.0
 40
1.0
 40
1.0
 10
6919.400404281382
 20
4348.82470032822
 30
0.0
 10
6918.976837787668
 20
4349.527271809341
 30
0.0
 10
6918.117735833862
 20
4350.952267745231
 30
0.0
 10
6916.61713417621
 20
4353.332635609278
 30
0.0
 10
6914.914037419075
 20
4355.90400112606
 30
0.0
 10
6913.69540126161
 20
4357.59486565343
 30
0.0
 10
6913.07831704
 20
4358.451073484066
 30
0.0
  0
SPLINE
  5
191
330
1F
100
AcDbEntity
  8
0
  6
SLD-Plná
 62
     7
370
    25
100
AcDbSpline
210
0.0
220
0.0
230
1.0
 70
     8
 71
     3
 72
    12
 73
     8
 74
     0
 42
0.00000001
 43
0.00000001
 40
0.0
 40
0.0
 40
0.0
 40
0.0
 40
0.1900943724388595
 40
0.3854791070104254
 40
0.653235518939504
 40
0.9282871170579183
 40
1.0
 40
1.0
 40
1.0
 40
1.0
 10
6906.491973453001
 20
4335.766468334819
 30
0.0
 10
6905.812391848239
 20
4336.207353545933
 30
0.0
 10
6904.434315754854
 20
4337.101393886493
 30
0.0
 10
6902.202628102595
 20
4338.623924167106
 30
0.0
 10
6899.863934162325
 20
4340.309902840286
 30
0.0
 10
6898.112418366389
 20
4341.64919747496
 30
0.0
 10
6897.192534184526
 20
4342.372816676584
 30
0.0
 10
6897.002296861337
 20
4342.522465276527
 30
0.0
  0
SPLINE
  5
192
330
1F
100
AcDbEntity
  8
0
  6
SLD-Plná
 62
     7
370
    25
100
AcDbSpline
210
0.0
220
0.0
230
1.0
 70
     8
 71
     3
 72
    12
 73
     8
 74
     0
 42
0.00000001
 43
0.00000001
 40
0.0
 40
0.0
 40
0.0
 40
0.0
 40
0.2427914550828742
 40
0.4880681846577983
 40
0.7019438068197649
 40
0.9577199628241756
 40
1.0
 40
1.0
 40
1.0
 40
1.0
 10
6897.002296861337
 20
4342.522465276527
 30
0.0
 10
6897.004062081858
 20
4342.524154247218
 30
0.0
 10
6897.007610592142
 20
4342.527549477328
 30
0.0
 10
6897.03215178204
 20
4342.527147539141
 30
0.0
 10
6897.073954893896
 20
4342.521030389104
 30
0.0
 10
6897.110698532517
 20
4342.513676156372
 30
0.0
 10
6897.132454643451
 20
4342.508965470656
 30
0.0
 10
6897.135540803713
 20
4342.508297247778
 30
0.0
  0
LINE
  5
193
330
1F
100
AcDbEntity
  8
0
  6
SLD-Plná
 62
     7
370
    25
100
AcDbLine
 10
6906.491973453
 20
4335.7664683348
 30
0.0
 11
6906.7619139596
 21
4336.1862100064
 31
0.0
  0
SPLINE
  5
194
330
1F
100
AcDbEntity
  8
0
  6
SLD-Plná
 62
     7
370
    25
100
AcDbSpline
210
0.0
220
0.0
230
1.0
 70
     8
 71
     3
 72
    12
 73
     8
 74
     0
 42
0.00000001
 43
0.00000001
 40
0.0
 40
0.0
 40
0.0
 40
0.0
 40
0.0717136050814575
 40
0.3400580287118615
 40
0.6145201036239849
 40
0.8048638788775236
 40
1.0
 40
1.0
 40
1.0
 40
1.0
 10
6913.06414901125
 20
4358.58431742644
 30
0.0
 10
6913.213798828667
 20
4358.394078614424
 30
0.0
 10
6913.923421805369
 20
4357.491987089037
 30
0.0
 10
6915.261461708466
 20
4355.743007753722
 30
0.0
 10
6916.935619242082
 20
4353.422735514436
 30
0.0
 10
6918.473250193287
 20
4351.170293486639
 30
0.0
 10
6919.367474985955
 20
4349.792235794397
 30
0.0
 10
6919.820145952959
 20
4349.094640834776
 30
0.0
  0
LINE
  5
195
330
1F
100
AcDbEntity
  8
0
  6
SLD-Plná
 62
     7
370
    25
100
AcDbLine
 10
6919.820145953
 20
4349.0946408348
 30
0.0
 11
6919.4004042814
 21
4348.8247003282
 31
0.0
  0
SPLINE
  5
196
330
1F
100
AcDbEntity
  8
0
  6
SLD-Plná
 62
     7
370
    25
100
AcDbSpline
210
0.0
220
0.0
230
1.0
 70
     8
 71
     3
 72
    12
 73
     8
 74
     0
 42
0.00000001
 43
0.00000001
 40
0.0
 40
0.0
 40
0.0
 40
0.0
 40
0.2332432267999994
 40
0.4687322585333416
 40
0.6766407870767067
 40
0.9387390538127394
 40
1.0
 40
1.0
 40
1.0
 40
1.0
 10
6913.07831704
 20
4358.451073484066
 30
0.0
 10
6913.074720460349
 20
4358.468054740063
 30
0.0
 10
6913.067492671034
 20
4358.50218075772
 30
0.0
 10
6913.060567835389
 20
4358.544923336091
 30
0.0
 10
6913.058737552597
 20
4358.573889955292
 30
0.0
 10
6913.061197689512
 20
4358.582662729011
 30
0.0
 10
6913.063678935104
 20
4358.584053872054
 30
0.0
 10
6913.06414901125
 20
4358.58431742644
 30
0.0
  0
SPLINE
  5
197
330
1F
100
AcDbEntity
  8
0
  6
SLD-Plná
 62
     7
370
    25
100
AcDbSpline
210
0.0
220
0.0
230
1.0
 70
     8
 71
     3
 72
     9
 73
     5
 74
     0
 42
0.00000001
 43
0.00000001
 40
0.0
 40
0.0
 40
0.0
 40
0.0
 40
0.5200009629701166
 40
1.0
 40
1.0
 40
1.0
 40
1.0
 10
6923.896046470337
 20
4342.740049702852
 30
0.0
 10
6924.343287824517
 20
4341.891141514625
 30
0.0
 10
6925.203365759035
 20
4340.258628791231
 30
0.0
 10
6925.149823326884
 20
4338.417364280635
 30
0.0
 10
6925.124123011012
 20
4337.533559088632
 30
0.0
  0
SPLINE
  5
198
330
1F
100
AcDbEntity
  8
0
  6
SLD-Plná
 62
     7
370
    25
100
AcDbSpline
210
0.0
220
0.0
230
1.0
 70
     8
 71
     3
 72
    11
 73
     7
 74
     0
 42
0.00000001
 43
0.00000001
 40
0.0
 40
0.0
 40
0.0
 40
0.0
 40
0.0072836428039124
 40
0.5034937192601492
 40
0.6801289473406209
 40
1.0
 40
1.0
 40
1.0
 40
1.0
 10
6918.058412835486
 20
4330.457133640426
 30
0.0
 10
6918.04568008702
 20
4330.453544487999
 30
0.0
 10
6917.165508028335
 20
4330.205438457352
 30
0.0
 10
6915.871482046954
 20
4330.46253970346
 30
0.0
 10
6914.144292839307
 20
4330.9516497893
 30
0.0
 10
6913.355037426707
 20
4331.401046688244
 30
0.0
 10
6912.846564584694
 20
4331.69056781759
 30
0.0
  0
SPLINE
  5
199
330
1F
100
AcDbEntity
  8
0
  6
SLD-Plná
 62
     7
370
    25
100
AcDbSpline
210
0.0
220
0.0
230
1.0
 70
     8
 71
     3
 72
    10
 73
     6
 74
     0
 42
0.00000001
 43
0.00000001
 40
0.0
 40
0.0
 40
0.0
 40
0.0
 40
0.1324584258302932
 40
0.6622923738412412
 40
0.9999999999999999
 40
0.9999999999999999
 40
0.9999999999999999
 40
0.9999999999999999
 10
6919.820145952959
 20
4349.094640834776
 30
0.0
 10
6920.00048795076
 20
4348.81430928004
 30
0.0
 10
6920.902198272914
 20
4347.412650988499
 30
0.0
 10
6922.261871052418
 20
4345.295110986426
 30
0.0
 10
6923.438154856751
 20
4343.455971091168
 30
0.0
 10
6923.896046470337
 20
4342.740049702852
 30
0.0
  0
SPLINE
  5
19A
330
1F
100
AcDbEntity
  8
0
  6
SLD-Plná
 62
     7
370
    25
100
AcDbSpline
210
0.0
220
0.0
230
1.0
 70
     8
 71
     3
 72
    19
 73
    15
 74
     0
 42
0.00000001
 43
0.00000001
 40
0.0
 40
0.0
 40
0.0
 40
0.0
 40
0.0102690536449122
 40
0.0409296505816995
 40
0.1635119560152287
 40
0.4083535453714948
 40
0.5321961060357343
 40
0.5945143775046343
 40
0.656673589593457
 40
0.6913535026641425
 40
0.7271543354592368
 40
0.8107933458168206
 40
0.8956199848361056
 40
1.0
 40
1.0
 40
1.0
 40
1.0
 10
6916.159183888959
 20
4358.2174269247
 30
0.0
 10
6916.178343388267
 20
4358.193047184442
 30
0.0
 10
6916.254707933547
 20
4358.095876180707
 30
0.0
 10
6916.258252651435
 20
4358.02126001734
 30
0.0
 10
6915.736221548593
 20
4358.440641658279
 30
0.0
 10
6914.784083568081
 20
4359.37158279913
 30
0.0
 10
6913.957738573419
 20
4360.171584660382
 30
0.0
 10
6913.546097619755
 20
4360.546328138476
 30
0.0
 10
6913.378889704673
 20
4360.631797860247
 30
0.0
 10
6913.373797302055
 20
4360.486334452509
 30
0.0
 10
6913.626887517392
 20
4359.819152954612
 30
0.0
 10
6913.634162386241
 20
4359.28594559777
 30
0.0
 10
6913.455040433666
 20
4358.797014822951
 30
0.0
 10
6913.203124165299
 20
4358.659938562518
 30
0.0
 10
6913.06414901125
 20
4358.58431742644
 30
0.0
  0
LINE
  5
19B
330
1F
100
AcDbEntity
  8
0
  6
SLD-Plná
 62
     7
370
    25
100
AcDbLine
 10
6922.359996033
 20
4352.0477965671
 30
0.0
 11
6915.732179235
 21
4358.6756133651
 31
0.0
  0
SPLINE
  5
19C
330
1F
100
AcDbEntity
  8
0
  6
SLD-Plná
 62
     7
370
    25
100
AcDbSpline
210
0.0
220
0.0
230
1.0
 70
     8
 71
     3
 72
    14
 73
    10
 74
     0
 42
0.00000001
 43
0.00000001
 40
0.0
 40
0.0
 40
0.0
 40
0.0
 40
0.2492176845480467
 40
0.3895065799573894
 40
0.5338449804934
 40
0.6744869096385315
 40
0.8192157467245055
 40
0.959661423124337
 40
1.0
 40
1.0
 40
1.0
 40
1.0
 10
6903.538817720681
 20
4333.226618254754
 30
0.0
 10
6904.544325796202
 20
4332.375513687451
 30
0.0
 10
6906.115851558213
 20
4331.045307808211
 30
0.0
 10
6908.72185859323
 20
4329.956643522162
 30
0.0
 10
6910.894726668441
 20
4329.423757897586
 30
0.0
 10
6913.157365669184
 20
4329.262948383112
 30
0.0
 10
6915.381080475364
 20
4329.50614736679
 30
0.0
 10
6917.061574850946
 20
4329.901708927708
 30
0.0
 10
6917.914809456529
 20
4330.317563779868
 30
0.0
 10
6918.10519257401
 20
4330.410353901902
 30
0.0
  0
SPLINE
  5
19D
330
1F
100
AcDbEntity
  8
0
  6
SLD-Plná
 62
     7
370
    25
100
AcDbSpline
210
0.0
220
0.0
230
1.0
 70
     8
 71
     3
 72
    15
 73
    11
 74
     0
 42
0.00000001
 43
0.00000001
 40
0.0
 40
0.0
 40
0.0
 40
0.0
 40
0.0218341022643756
 40
0.1621649210132115
 40
0.3065715935562879
 40
0.4469050918514115
 40
0.5913142592239781
 40
0.7315795454496533
 40
0.8758866610499703
 40
1.0
 40
1.0
 40
1.0
 40
1.0
 10
6925.187092923093
 20
4337.47058917655
 30
0.0
 10
6925.238980345047
 20
4337.57289061668
 30
0.0
 10
6925.624355460588
 20
4338.332697672511
 30
0.0
 10
6926.01851148903
 20
4339.914268144236
 30
0.0
 10
6926.316864382407
 20
4342.128487300967
 30
0.0
 10
6926.204155911316
 20
4344.392543993788
 30
0.0
 10
6925.727311504058
 20
4346.583562999099
 30
0.0
 10
6924.873726606354
 20
4348.677076827565
 30
0.0
 10
6923.756997452791
 20
4350.527362631832
 30
0.0
 10
6922.801707074458
 20
4351.567058002715
 30
0.0
 10
6922.359996033024
 20
4352.047796567097
 30
0.0
  0
LINE
  5
19E
330
1F
100
AcDbEntity
  8
0
  6
SLD-Plná
 62
     7
370
    25
100
AcDbLine
 10
6896.9106322552
 20
4339.8548037202
 30
0.0
 11
6903.5388177207
 21
4333.2266182548
 31
0.0
  0
LINE
  5
19F
330
1F
100
AcDbEntity
  8
0
  6
SLD-Plná
 62
     7
370
    25
100
AcDbLine
 10
6897.3691873547
 20
4339.4274304055
 30
0.0
 11
6896.9090711241
 21
4339.8563648514
 31
0.0
  0
SPLINE
  5
1A0
330
1F
100
AcDbEntity
  8
0
  6
SLD-Plná
 62
     7
370
    25
100
AcDbSpline
210
0.0
220
0.0
230
1.0
 70
     8
 71
     3
 72
    19
 73
    15
 74
     0
 42
0.00000001
 43
0.00000001
 40
0.0
 40
0.0
 40
0.0
 40
0.0
 40
0.1043803078942071
 40
0.1881904383078302
 40
0.2728454540968264
 40
0.3078217113500338
 40
0.3433244968867026
 40
0.4049468561876637
 40
0.4667249034758882
 40
0.5916453085974565
 40
0.8364875850887437
 40
0.9590702345489265
 40
0.98973091753865
 40
1.0
 40
1.0
 40
1.0
 40
1.0
 10
6897.002296861337
 20
4342.522465276527
 30
0.0
 10
6896.926731865882
 20
4342.383453940183
 30
0.0
 10
6896.790493432576
 20
4342.132826165232
 30
0.0
 10
6896.302482563125
 20
4341.953132242272
 30
0.0
 10
6895.774928606599
 20
4341.957589895616
 30
0.0
 10
6895.102860409118
 20
4342.211790366014
 30
0.0
 10
6894.954343497727
 20
4342.209000356121
 30
0.0
 10
6895.039357475973
 20
4342.042262399676
 30
0.0
 10
6895.411678661855
 20
4341.632190142649
 30
0.0
 10
6896.21324859615
 20
4340.804459409213
 30
0.0
 10
6897.145928731924
 20
4339.850419798914
 30
0.0
 10
6897.565356119076
 20
4339.328360494057
 30
0.0
 10
6897.490738053093
 20
4339.331906386119
 30
0.0
 10
6897.393567085771
 20
4339.40827091126
 30
0.0
 10
6897.369187354656
 20
4339.427430405511
 30
0.0
  0
SPLINE
  5
1A1
330
1F
100
AcDbEntity
  8
0
  6
SLD-Plná
 62
     7
370
    25
100
AcDbSpline
210
0.0
220
0.0
230
1.0
 70
     8
 71
     3
 72
    10
 73
     6
 74
     0
 42
0.00000001
 43
0.00000001
 40
0.0
 40
0.0
 40
0.0
 40
0.0
 40
0.1324584287773581
 40
0.6622924464969028
 40
0.9999999999999999
 40
0.9999999999999999
 40
0.9999999999999999
 40
0.9999999999999999
 10
6912.846564584694
 20
4331.69056781759
 30
0.0
 10
6912.56571897631
 20
4331.870100818795
 30
0.0
 10
6911.16149029278
 20
4332.767766234978
 30
0.0
 10
6909.042975204236
 20
4334.12590528947
 30
0.0
 10
6907.206757262189
 20
4335.306786995048
 30
0.0
 10
6906.491973453001
 20
4335.766468334819
 30
0.0
  0
LWPOLYLINE
  5
1A2
330
1F
100
AcDbEntity
  8
0
  6
SLD-Plná
 62
     7
370
    25
100
AcDbPolyline
 90
       38
 70
   128
 43
0.0
 10
7189.0281178466
 20
4364.9237360616
 10
7190.5598061143
 20
4366.2002851893
 10
7192.3025696391
 20
4367.184971183
 10
7194.2062722876
 20
4367.8494664193
 10
7196.2161480006
 20
4368.1746545802
 10
7198.2743763132
 20
4368.1511805943
 10
7200.3217457442
 20
4367.7797197655
 10
7202.2993572028
 20
4367.0709583455
 10
7204.1503184079
 20
4366.0452861099
 10
7205.8213805756
 20
4364.7322097815
 10
7207.26447029
 20
4363.1695041756
 10
7208.4380724874
 20
4361.4021254872
 10
7209.3084247692
 20
4359.4809179833
 10
7209.8504886851
 20
4357.4611513059
 10
7210.0486700431
 20
4355.4009304649
 10
7209.8972675263
 20
4353.3595242629
 10
7209.4006367094
 20
4351.3956602396
 10
7208.573064757
 20
4349.5658351872
 10
7207.4383594073
 20
4347.9226898409
 10
7206.0291640672
 20
4346.5134945009
 10
7204.386018721
 20
4345.3787891511
 10
7202.5561936686
 20
4344.5512171987
 10
7200.5923296452
 20
4344.0545863819
 10
7198.5509234432
 20
4343.9031838651
 10
7196.4907026022
 20
4344.101365223
 10
7194.4709359248
 20
4344.6434291389
 10
7192.5497284209
 20
4345.5137814208
 10
7190.7823497325
 20
4346.6873836181
 10
7189.2196441266
 20
4348.1304733325
 10
7187.9065677982
 20
4349.8015355003
 10
7186.8808955626
 20
4351.6524967054
 10
7186.1721341426
 20
4353.6301081639
 10
7185.8006733138
 20
4355.677477595
 10
7185.7771993279
 20
4357.7357059075
 10
7186.1023874888
 20
4359.7455816205
 10
7186.7668827251
 20
4361.649284269
 10
7187.7515687188
 20
4363.3920477939
 10
7189.0281178466
 20
4364.9237360616
  0
LWPOLYLINE
  5
1A3
330
1F
100
AcDbEntity
  8
0
  6
SLD-Plná
 62
     7
370
    25
100
AcDbPolyline
 90
       39
 70
   128
 43
0.0
 10
7188.4966948112
 20
4365.0394955039
 10
7190.0394728231
 20
4366.3315291297
 10
7191.7909122587
 20
4367.3375750602
 10
7193.7032384159
 20
4368.0301909849
 10
7195.724288022
 20
4368.3904841469
 10
7197.7989321124
 20
4368.408626688
 10
7199.8705798045
 20
4368.084123727
 10
7201.8827219495
 20
4367.4258268587
 10
7203.7804725551
 20
4366.4516927056
 10
7205.5120659318
 20
4365.1882931081
 10
7207.0302687263
 20
4363.6700903137
 10
7208.2936683238
 20
4361.938496937
 10
7209.2678024769
 20
4360.0407463314
 10
7209.9260993452
 20
4358.0286041863
 10
7210.2506023062
 20
4355.9569564942
 10
7210.2324597651
 20
4353.8823124038
 10
7209.872166603
 20
4351.8612627977
 10
7209.1795506783
 20
4349.9489366405
 10
7208.1735047479
 20
4348.1974972049
 10
7206.881471122
 20
4346.654719193
 10
7205.3386931101
 20
4345.3626855672
 10
7203.5872536745
 20
4344.3566396367
 10
7201.6749275174
 20
4343.664023712
 10
7199.6538779112
 20
4343.3037305499
 10
7197.5792338208
 20
4343.2855880088
 10
7195.5075861287
 20
4343.6100909698
 10
7193.4954439837
 20
4344.2683878382
 10
7191.5976933781
 20
4345.2425219912
 10
7189.8661000014
 20
4346.5059215888
 10
7188.347897207
 20
4348.0241243832
 10
7187.0844976094
 20
4349.7557177599
 10
7186.1103634563
 20
4351.6534683655
 10
7185.452066588
 20
4353.6656105106
 10
7185.127563627
 20
4355.7372582026
 10
7185.1457061681
 20
4357.811902293
 10
7185.5059993302
 20
4359.8329518992
 10
7186.1986152549
 20
4361.7452780563
 10
7187.2046611854
 20
4363.4967174919
 10
7188.4966948112
 20
4365.0394955039
  0
LWPOLYLINE
  5
1A4
330
1F
100
AcDbEntity
  8
0
  6
SLD-Plná
 62
     7
370
    25
100
AcDbPolyline
 90
       20
 70
   128
 43
0.0
 10
7204.7878968986
 20
4344.5611449696
 10
7203.2451188867
 20
4343.2691113438
 10
7201.4936794511
 20
4342.2630654133
 10
7199.5813532939
 20
4341.5704494886
 10
7197.5603036878
 20
4341.2101563265
 10
7195.4856595974
 20
4341.1920137854
 10
7193.4140119053
 20
4341.5165167464
 10
7191.4018697603
 20
4342.1748136147
 10
7189.5041191546
 20
4343.1489477678
 10
7187.7725257779
 20
4344.4123473654
 10
7186.2543229835
 20
4345.9305501598
 10
7184.990923386
 20
4347.6621435365
 10
7184.0167892329
 20
4349.5598941421
 10
7183.3584923646
 20
4351.5720362871
 10
7183.0339894036
 20
4353.6436839792
 10
7183.0521319447
 20
4355.7183280696
 10
7183.4124251067
 20
4357.7393776758
 10
7184.1050410315
 20
4359.6517038329
 10
7185.1110869619
 20
4361.4031432685
 10
7186.4031205878
 20
4362.9459212804
  0
ARC
  5
1A5
330
1F
100
AcDbEntity
  8
0
  6
SLD-Plná
 62
     7
370
    25
100
AcDbCircle
 10
7194.4520733584
 20
4352.61009774
 30
0.0
 40
11.02716536074033
100
AcDbArc
 50
189.6438238233
 51
260.356176044
  0
LINE
  5
1A6
330
1F
100
AcDbEntity
  8
0
  6
SLD-Plná
 62
     7
370
    25
100
AcDbLine
 10
7173.8728582781
 20
4351.4763191426
 30
0.0
 11
7180.5903726994
 21
4358.1938335638
 31
0.0
  0
LWPOLYLINE
  5
1A7
330
1F
100
AcDbEntity
  8
0
  6
SLD-Plná
 62
     7
370
    25
100
AcDbPolyline
 90
        3
 70
   128
 43
0.0
 10
7180.5903726994
 20
4358.1938335638
 10
7182.3232847289
 20
4359.661535185
 10
7183.7601825681
 20
4360.5592041649
  0
LWPOLYLINE
  5
1A8
330
1F
100
AcDbEntity
  8
0
  6
SLD-Plná
 62
     7
370
    25
100
AcDbPolyline
 90
        3
 70
   128
 43
0.0
 10
7202.2195139344
 20
4341.5936454757
 10
7201.5035108032
 20
4340.4813091108
 10
7200.035809182
 20
4338.7483970812
  0
LINE
  5
1A9
330
1F
100
AcDbEntity
  8
0
  6
SLD-Plná
 62
     7
370
    25
100
AcDbLine
 10
7200.035809182
 20
4338.7483970812
 30
0.0
 11
7193.3182947608
 21
4332.0308826599
 31
0.0
  0
ARC
  5
1AA
330
1F
100
AcDbEntity
  8
0
  6
SLD-Plná
 62
     7
370
    25
100
AcDbCircle
 10
7183.5955765194
 20
4341.7536009013
 30
0.0
 40
13.75000000000039
100
AcDbArc
 50
268.6950697228
 51
315.0
  0
ARC
  5
1AB
330
1F
100
AcDbEntity
  8
0
  6
SLD-Plná
 62
     7
370
    25
100
AcDbCircle
 10
7183.5955765194
 20
4341.7536009013
 30
0.0
 40
13.74999999999994
100
AcDbArc
 50
135.0
 51
181.4026835978
  0
LWPOLYLINE
  5
1AC
330
1F
100
AcDbEntity
  8
0
  6
SLD-Plná
 62
     7
370
    25
100
AcDbPolyline
 90
        9
 70
   128
 43
0.0
 10
7168.6087314805
 20
4339.0737413636
 10
7168.5444957129
 20
4339.1444973148
 10
7168.4896025075
 20
4339.2196302398
 10
7168.4460710778
 20
4339.2963764192
 10
7168.4155027008
 20
4339.3719127913
 10
7168.399021816
 20
4339.4434607966
 10
7168.3972346627
 20
4339.5083885849
 10
7168.4102069801
 20
4339.5643078268
 10
7168.4374615896
 20
4339.6091615669
  0
ARC
  5
1AD
330
1F
100
AcDbEntity
  8
0
  6
SLD-Plná
 62
     7
370
    25
100
AcDbCircle
 10
7168.7426483754
 20
4339.2445828721
 30
0.0
 40
0.4754540975985785
100
AcDbArc
 50
41.8520086974
 51
129.9325126073
  0
LINE
  5
1AE
330
1F
100
AcDbEntity
  8
0
  6
SLD-Plná
 62
     7
370
    25
100
AcDbLine
 10
7169.0968001856
 20
4339.5618100687
 30
0.0
 11
7168.6087314805
 21
4339.0737413636
 31
0.0
  0
LINE
  5
1AF
330
1F
100
AcDbEntity
  8
0
  6
SLD-Plná
 62
     7
370
    25
100
AcDbLine
 10
7169.0968001856
 20
4339.5618100687
 30
0.0
 11
7181.4037856869
 21
4327.2548245674
 31
0.0
  0
LINE
  5
1B0
330
1F
100
AcDbEntity
  8
0
  6
SLD-Plná
 62
     7
370
    25
100
AcDbLine
 10
7181.4037856869
 20
4327.2548245674
 30
0.0
 11
7180.9157169818
 21
4326.7667558623
 31
0.0
  0
LINE
  5
1B1
330
1F
100
AcDbEntity
  8
0
  6
SLD-Plná
 62
     7
370
    25
100
AcDbLine
 10
7180.9157169818
 20
4326.7667558623
 30
0.0
 11
7168.6087314805
 21
4339.0737413636
 31
0.0
  0
LWPOLYLINE
  5
1B2
330
1F
100
AcDbEntity
  8
0
  6
SLD-Plná
 62
     7
370
    25
100
AcDbPolyline
 90
        9
 70
   128
 43
0.0
 10
7181.4511371851
 20
4326.5954859714
 10
7181.406283445
 20
4326.568231362
 10
7181.350364203
 20
4326.5552590445
 10
7181.2854364148
 20
4326.5570461979
 10
7181.2138884095
 20
4326.5735270827
 10
7181.1383520373
 20
4326.6040954596
 10
7181.0616058579
 20
4326.6476268893
 10
7180.986472933
 20
4326.7025200947
 10
7180.9157169818
 20
4326.7667558623
  0
ARC
  5
1B3
330
1F
100
AcDbEntity
  8
0
  6
SLD-Plná
 62
     7
370
    25
100
AcDbCircle
 10
7181.0865584903
 20
4326.9006727572
 30
0.0
 40
0.4754540975943941
100
AcDbArc
 50
320.0674873923
 51
48.147991303
  0
SPLINE
  5
1B4
330
1F
100
AcDbEntity
  8
0
  6
SLD-Plná
 62
     7
370
    25
100
AcDbSpline
210
0.0
220
0.0
230
1.0
 70
     8
 71
     3
 72
    10
 73
     6
 74
     0
 42
0.00000001
 43
0.00000001
 40
0.0
 40
0.0
 40
0.0
 40
0.0
 40
0.4999319656265337
 40
0.8991841286565707
 40
1.0
 40
1.0
 40
1.0
 40
1.0
 10
7168.608731480502
 20
4339.073741363585
 30
0.0
 10
7168.290232595437
 20
4338.752101467316
 30
0.0
 10
7167.717376362717
 20
4338.173595771034
 30
0.0
 10
7167.080650284086
 20
4337.529872659752
 30
0.0
 10
7166.762336057941
 20
4337.20787593432
 30
0.0
 10
7166.698162537812
 20
4337.14296000646
 30
0.0
  0
LWPOLYLINE
  5
1B5
330
1F
100
AcDbEntity
  8
0
  6
SLD-Plná
 62
     7
370
    25
100
AcDbPolyline
 90
        9
 70
   128
 43
0.0
 10
7166.6981625378
 20
4337.1429600065
 10
7166.6327426922
 20
4337.2150590758
 10
7166.5770672173
 20
4337.2916508892
 10
7166.5332622702
 20
4337.3698105283
 10
7166.5030006914
 20
4337.446553202
 10
7166.4874381222
 20
4337.5189482305
 10
7166.4871688721
 20
4337.5842309641
 10
7166.5022032232
 20
4337.6399083599
 10
7166.5319670379
 20
4337.6838541876
  0
SPLINE
  5
1B6
330
1F
100
AcDbEntity
  8
0
  6
SLD-Plná
 62
     7
370
    25
100
AcDbSpline
210
0.0
220
0.0
230
1.0
 70
     8
 71
     3
 72
     9
 73
     5
 74
     0
 42
0.00000001
 43
0.00000001
 40
0.0
 40
0.0
 40
0.0
 40
0.0
 40
0.5000730862086087
 40
1.0
 40
1.0
 40
1.0
 40
1.0
 10
7166.531967037906
 20
4337.68385418756
 30
0.0
 10
7166.849400996356
 20
4338.004865844719
 30
0.0
 10
7167.48417612664
 20
4338.646795326653
 30
0.0
 10
7168.119730735456
 20
4339.288404082006
 30
0.0
 10
7168.437461589588
 20
4339.609161566932
 30
0.0
  0
SPLINE
  5
1B7
330
1F
100
AcDbEntity
  8
0
  6
SLD-Plná
 62
     7
370
    25
100
AcDbSpline
210
0.0
220
0.0
230
1.0
 70
     8
 71
     3
 72
    10
 73
     6
 74
     0
 42
0.00000001
 43
0.00000001
 40
0.0
 40
0.0
 40
0.0
 40
0.0
 40
0.5000680325356542
 40
0.899259468780018
 40
1.0
 40
1.0
 40
1.0
 40
1.0
 10
7178.984935624637
 20
4324.856186919635
 30
0.0
 10
7179.306892003136
 20
4325.174541828599
 30
0.0
 10
7179.885857869905
 20
4325.74703126542
 30
0.0
 10
7180.529300559595
 20
4326.384039863337
 30
0.0
 10
7180.850909960088
 20
4326.702569449381
 30
0.0
 10
7180.915716981763
 20
4326.766755862325
 30
0.0
  0
LINE
  5
1B8
330
1F
100
AcDbEntity
  8
0
  6
SLD-Plná
 62
     7
370
    25
100
AcDbLine
 10
7166.6981625378
 20
4337.1429600065
 30
0.0
 11
7178.9849356246
 21
4324.8561869196
 31
0.0
  0
SPLINE
  5
1B9
330
1F
100
AcDbEntity
  8
0
  6
SLD-Plná
 62
     7
370
    25
100
AcDbSpline
210
0.0
220
0.0
230
1.0
 70
     8
 71
     3
 72
     9
 73
     5
 74
     0
 42
0.00000001
 43
0.00000001
 40
0.0
 40
0.0
 40
0.0
 40
0.0
 40
0.4999269137913841
 40
1.0
 40
1.0
 40
1.0
 40
1.0
 10
7181.451137185108
 20
4326.595485971411
 30
0.0
 10
7181.130379700183
 20
4326.277755117279
 30
0.0
 10
7180.48877094483
 20
4325.642200508463
 30
0.0
 10
7179.846841462895
 20
4325.00742537818
 30
0.0
 10
7179.525829805736
 20
4324.689991419729
 30
0.0
  0
LWPOLYLINE
  5
1BA
330
1F
100
AcDbEntity
  8
0
  6
SLD-Plná
 62
     7
370
    25
100
AcDbPolyline
 90
        9
 70
   128
 43
0.0
 10
7179.5258298057
 20
4324.6899914197
 10
7179.4818839781
 20
4324.660227605
 10
7179.4262065823
 20
4324.6451932539
 10
7179.3609238487
 20
4324.6454625041
 10
7179.2885288201
 20
4324.6610250733
 10
7179.2117861465
 20
4324.691286652
 10
7179.1336265074
 20
4324.7350915991
 10
7179.057034694
 20
4324.790767074
 10
7178.9849356246
 20
4324.8561869196
  0
LINE
  5
1BB
330
1F
100
AcDbEntity
  8
0
  6
SLD-Plná
 62
     7
370
    25
100
AcDbLine
 10
7168.6748863975
 20
4339.8785676702
 30
0.0
 11
7172.3973414671
 21
4344.102440163
 31
0.0
  0
SPLINE
  5
1BC
330
1F
100
AcDbEntity
  8
0
  6
SLD-Plná
 62
     7
370
    25
100
AcDbSpline
210
0.0
220
0.0
230
1.0
 70
     8
 71
     3
 72
    10
 73
     6
 74
     0
 42
0.00000001
 43
0.00000001
 40
0.0
 40
0.0
 40
0.0
 40
0.0
 40
0.1122699001683913
 40
0.4587269250918691
 40
1.0
 40
1.0
 40
1.0
 40
1.0
 10
7177.605386982616
 20
4350.00466862581
 30
0.0
 10
7177.607590415119
 20
4350.007148063245
 30
0.0
 10
7177.616593485539
 20
4350.017278870422
 30
0.0
 10
7177.622062009929
 20
4350.016861167977
 30
0.0
 10
7177.621228170482
 20
4350.008216554577
 30
0.0
 10
7177.620719755996
 20
4350.002945699757
 30
0.0
  0
SPLINE
  5
1BD
330
1F
100
AcDbEntity
  8
0
  6
SLD-Plná
 62
     7
370
    25
100
AcDbSpline
210
0.0
220
0.0
230
1.0
 70
     8
 71
     3
 72
    12
 73
     8
 74
     0
 42
0.00000001
 43
0.00000001
 40
0.0
 40
0.0
 40
0.0
 40
0.0
 40
0.4496854834700522
 40
0.641685032639919
 40
0.835594096129621
 40
0.9537803529363492
 40
0.9999999999999999
 40
0.9999999999999999
 40
0.9999999999999999
 40
0.9999999999999999
 10
7177.620719755996
 20
4350.002945699757
 30
0.0
 10
7177.726040850851
 20
4350.077414208958
 30
0.0
 10
7177.876330270175
 20
4350.18367809675
 30
0.0
 10
7178.115346530205
 20
4350.23084913036
 30
0.0
 10
7178.265914394707
 20
4350.214963854316
 30
0.0
 10
7178.363481324868
 20
4350.164444777865
 30
0.0
 10
7178.399900659495
 20
4350.130806613141
 30
0.0
 10
7178.410139274734
 20
4350.121349871839
 30
0.0
  0
SPLINE
  5
1BE
330
1F
100
AcDbEntity
  8
0
  6
SLD-Plná
 62
     7
370
    25
100
AcDbSpline
210
0.0
220
0.0
230
1.0
 70
     8
 71
     3
 72
    11
 73
     7
 74
     0
 42
0.00000001
 43
0.00000001
 40
0.0
 40
0.0
 40
0.0
 40
0.0
 40
0.1162713110743914
 40
0.5087398536706719
 40
0.9012083964939631
 40
1.0
 40
1.0
 40
1.0
 40
1.0
 10
7178.410139274734
 20
4350.121349871839
 30
0.0
 10
7178.048879561703
 20
4349.712383694931
 30
0.0
 10
7176.468204055024
 20
4347.922970717013
 30
0.0
 10
7173.66954555211
 20
4344.75172842217
 30
0.0
 10
7170.927010435742
 20
4341.640219400711
 30
0.0
 10
7169.403229927422
 20
4339.909795462692
 30
0.0
 10
7169.096800185597
 20
4339.561810068682
 30
0.0
  0
SPLINE
  5
1BF
330
1F
100
AcDbEntity
  8
0
  6
SLD-Plná
 62
     7
370
    25
100
AcDbSpline
210
0.0
220
0.0
230
1.0
 70
     8
 71
     3
 72
    11
 73
     7
 74
     0
 42
0.00000001
 43
0.00000001
 40
0.0
 40
0.0
 40
0.0
 40
0.0
 40
0.3793880312190284
 40
0.789058484461081
 40
0.9607347852763567
 40
1.0
 40
1.0
 40
1.0
 40
1.0
 10
7191.844921317938
 20
4335.778744137823
 30
0.0
 10
7191.849064072653
 20
4335.779378900326
 30
0.0
 10
7191.857680253155
 20
4335.780699091526
 30
0.0
 10
7191.85848883409
 20
4335.775889942644
 30
0.0
 10
7191.853913469668
 20
4335.769348019763
 30
0.0
 10
7191.847811513471
 20
4335.764333054816
 30
0.0
 10
7191.846675679116
 20
4335.763399555903
 30
0.0
  0
SPLINE
  5
1C0
330
1F
100
AcDbEntity
  8
0
  6
SLD-Plná
 62
     7
370
    25
100
AcDbSpline
210
0.0
220
0.0
230
1.0
 70
     8
 71
     3
 72
     9
 73
     5
 74
     0
 42
0.00000001
 43
0.00000001
 40
0.0
 40
0.0
 40
0.0
 40
0.0
 40
0.7824724114254948
 40
1.0
 40
1.0
 40
1.0
 40
1.0
 10
7191.835562390053
 20
4335.754153948135
 30
0.0
 10
7191.830956251029
 20
4335.750656542771
 30
0.0
 10
7191.825069603837
 20
4335.746186857561
 30
0.0
 10
7191.817214687324
 20
4335.740780712602
 30
0.0
 10
7191.815506026277
 20
4335.739604726926
 30
0.0
  0
SPLINE
  5
1C1
330
1F
100
AcDbEntity
  8
0
  6
SLD-Plná
 62
     7
370
    25
100
AcDbSpline
210
0.0
220
0.0
230
1.0
 70
     8
 71
     3
 72
     9
 73
     5
 74
     0
 42
0.00000001
 43
0.00000001
 40
0.0
 40
0.0
 40
0.0
 40
0.0
 40
0.8167696794045418
 40
1.0
 40
1.0
 40
1.0
 40
1.0
 10
7185.920263485868
 20
4330.533875225113
 30
0.0
 10
7184.776906918126
 20
4329.525209843958
 30
0.0
 10
7183.377055042411
 20
4328.290265150748
 30
0.0
 10
7181.975643164417
 20
4327.057069972942
 30
0.0
 10
7181.718862016726
 20
4326.831111225157
 30
0.0
  0
SPLINE
  5
1C2
330
1F
100
AcDbEntity
  8
0
  6
SLD-Plná
 62
     7
370
    25
100
AcDbSpline
210
0.0
220
0.0
230
1.0
 70
     8
 71
     3
 72
    11
 73
     7
 74
     0
 42
0.00000001
 43
0.00000001
 40
0.0
 40
0.0
 40
0.0
 40
0.0
 40
0.0988512978960044
 40
0.4912601463293804
 40
0.8836689945359022
 40
0.9999999999999999
 40
0.9999999999999999
 40
0.9999999999999999
 40
0.9999999999999999
 10
7181.403785686858
 20
4327.254824567422
 30
0.0
 10
7181.751981339955
 20
4327.561439477971
 30
0.0
 10
7183.482405230513
 20
4329.085220035531
 30
0.0
 10
7186.593703905849
 20
4331.82757007338
 30
0.0
 10
7189.764736313465
 20
4334.626043021996
 30
0.0
 10
7191.554149336988
 20
4336.206718481422
 30
0.0
 10
7191.963325490016
 20
4336.568163656557
 30
0.0
  0
SPLINE
  5
1C3
330
1F
100
AcDbEntity
  8
0
  6
SLD-Plná
 62
     7
370
    25
100
AcDbSpline
210
0.0
220
0.0
230
1.0
 70
     8
 71
     3
 72
    12
 73
     8
 74
     0
 42
0.00000001
 43
0.00000001
 40
0.0
 40
0.0
 40
0.0
 40
0.0
 40
0.1320369842661645
 40
0.2632541655736363
 40
0.4604257936391902
 40
0.7744545124001889
 40
1.0
 40
1.0
 40
1.0
 40
1.0
 10
7191.963325490016
 20
4336.568163656557
 30
0.0
 10
7191.98844100511
 20
4336.53667494996
 30
0.0
 10
7192.038516095856
 20
4336.473893046646
 30
0.0
 10
7192.070809319602
 20
4336.337555921938
 30
0.0
 10
7192.057632992041
 20
4336.14962868046
 30
0.0
 10
7191.976307155601
 20
4335.950880673461
 30
0.0
 10
7191.883651836906
 20
4335.829487334176
 30
0.0
 10
7191.844921317938
 20
4335.778744137823
 30
0.0
  0
LINE
  5
1C4
330
1F
100
AcDbEntity
  8
0
  6
SLD-Plná
 62
     7
370
    25
100
AcDbLine
 10
7178.4101392747
 20
4350.1213498718
 30
0.0
 11
7191.96332549
 21
4336.5681636566
 31
0.0
  0
LINE
  5
1C5
330
1F
100
AcDbEntity
  8
0
  6
SLD-Plná
 62
     7
370
    25
100
AcDbLine
 10
7179.5258298057
 20
4324.6899914197
 30
0.0
 11
7179.6434735692
 21
4324.8057188233
 31
0.0
  0
SPLINE
  5
1C6
330
1F
100
AcDbEntity
  8
0
  6
SLD-Plná
 62
     7
370
    25
100
AcDbSpline
210
0.0
220
0.0
230
1.0
 70
     8
 71
     3
 72
    11
 73
     7
 74
     0
 42
0.00000001
 43
0.00000001
 40
0.0
 40
0.0
 40
0.0
 40
0.0
 40
0.0505727638907594
 40
0.7553646120591138
 40
0.9244689471649435
 40
1.0
 40
1.0
 40
1.0
 40
1.0
 10
7191.844921317938
 20
4335.778744137823
 30
0.0
 10
7192.031234013718
 20
4335.895049737049
 30
0.0
 10
7194.814036580589
 20
4337.63221272917
 30
0.0
 10
7198.161166033042
 20
4339.808421611856
 30
0.0
 10
7201.696359037825
 20
4341.99319984154
 30
0.0
 10
7202.414649080097
 20
4342.775153423323
 30
0.0
 10
7202.636420768937
 20
4343.016581197928
 30
0.0
  0
SPLINE
  5
1C7
330
1F
100
AcDbEntity
  8
0
  6
SLD-Plná
 62
     7
370
    25
100
AcDbSpline
210
0.0
220
0.0
230
1.0
 70
     8
 71
     3
 72
    12
 73
     8
 74
     0
 42
0.00000001
 43
0.00000001
 40
0.0
 40
0.0
 40
0.0
 40
0.0
 40
0.0513836655802814
 40
0.2002869114862957
 40
0.3507714111741245
 40
0.9504760202152513
 40
1.0
 40
1.0
 40
1.0
 40
1.0
 10
7185.045611584686
 20
4360.994462289445
 30
0.0
 10
7184.872580336022
 20
4360.846640105689
 30
0.0
 10
7184.198126810878
 20
4360.270448269257
 30
0.0
 10
7183.299621035638
 20
4358.984492049085
 30
0.0
 10
7181.159870920218
 20
4355.631677751347
 30
0.0
 10
7179.262158736488
 20
4352.630841632019
 30
0.0
 10
7177.737056488825
 20
4350.189197415847
 30
0.0
 10
7177.620719755996
 20
4350.002945699757
 30
0.0
  0
SPLINE
  5
1C8
330
1F
100
AcDbEntity
  8
0
  6
SLD-Plná
 62
     7
370
    25
100
AcDbSpline
210
0.0
220
0.0
230
1.0
 70
     8
 71
     3
 72
    12
 73
     8
 74
     0
 42
0.00000001
 43
0.00000001
 40
0.0
 40
0.0
 40
0.0
 40
0.0
 40
0.1729281140926566
 40
0.4456817834889621
 40
0.70400028281532
 40
0.9594043325627925
 40
1.0
 40
1.0
 40
1.0
 40
1.0
 10
7169.416031573602
 20
4334.097476013497
 30
0.0
 10
7169.527965754707
 20
4333.555125667081
 30
0.0
 10
7169.816449936301
 20
4332.157344450678
 30
0.0
 10
7171.223282875667
 20
4330.136095220051
 30
0.0
 10
7173.265106380012
 20
4328.463668789585
 30
0.0
 10
7174.974704162945
 20
4327.584269130545
 30
0.0
 10
7175.895973613974
 20
4327.502410716802
 30
0.0
 10
7176.022323559878
 20
4327.491184027221
 30
0.0
  0
ARC
  5
1C9
330
1F
100
AcDbEntity
  8
0
  6
SLD-Plná
 62
     7
370
    25
100
AcDbCircle
 10
7182.8044026477
 20
4342.2290844731
 30
0.0
 40
12.85627604937858
100
AcDbArc
 50
134.0051089875
 51
176.1908149732
  0
ARC
  5
1CA
330
1F
100
AcDbEntity
  8
0
  6
SLD-Plná
 62
     7
370
    25
100
AcDbCircle
 10
7184.0678994101
 20
4340.9679927876
 30
0.0
 40
12.86241624185114
100
AcDbArc
 50
273.7690911372
 51
315.986839349
  0
LWPOLYLINE
  5
1CB
330
1F
100
AcDbEntity
  8
0
  6
SLD-Plná
 62
     7
370
    25
100
AcDbPolyline
 90
        3
 70
   128
 43
0.0
 10
7200.035809182
 20
4338.7483970812
 10
7201.7481289854
 20
4340.8307658135
 10
7202.1413575614
 20
4341.5681870392
  0
LWPOLYLINE
  5
1CC
330
1F
100
AcDbEntity
  8
0
  6
SLD-Plná
 62
     7
370
    25
100
AcDbPolyline
 90
        3
 70
   128
 43
0.0
 10
7183.4275465075
 20
4360.3085377676
 10
7182.6723833318
 20
4359.9057952673
 10
7180.5903726994
 20
4358.1938335638
  0
ARC
  5
1CD
330
1F
100
AcDbEntity
  8
0
  6
SLD-Plná
 62
     7
370
    25
100
AcDbCircle
 10
7177.4840878831
 20
4336.7172504006
 30
0.0
 40
7.672708359940084
100
AcDbArc
 50
215.0558387794
 51
234.9441612206
  0
ARC
  5
1CE
330
1F
100
AcDbEntity
  8
0
  6
SLD-Plná
 62
     7
370
    25
100
AcDbCircle
 10
7194.3727610774
 20
4352.532879331
 30
0.0
 40
11.40200045112351
100
AcDbArc
 50
174.0838451552
 51
276.6668562133
  0
ARC
  5
1CF
330
1F
100
AcDbEntity
  8
0
  6
SLD-Plná
 62
     7
370
    25
100
AcDbCircle
 10
7048.714294953
 20
4235.3723193348
 30
0.0
 40
4.875000000000267
100
AcDbArc
 50
280.638709315
 51
79.361290685
  0
LINE
  5
1D0
330
1F
100
AcDbEntity
  8
0
  6
SLD-Plná
 62
     7
370
    25
100
AcDbLine
 10
7049.614294953
 20
4240.1635222109
 30
0.0
 11
7049.614294953
 21
4230.5811164587
 31
0.0
  0
LINE
  5
1D1
330
1F
100
AcDbEntity
  8
0
  6
SLD-Plná
 62
     7
370
    25
100
AcDbLine
 10
7047.814294953
 20
4230.5811164587
 30
0.0
 11
7047.814294953
 21
4240.1635222109
 31
0.0
  0
ARC
  5
1D2
330
1F
100
AcDbEntity
  8
0
  6
SLD-Plná
 62
     7
370
    25
100
AcDbCircle
 10
7048.714294953
 20
4235.3723193348
 30
0.0
 40
4.875000000000267
100
AcDbArc
 50
100.638709315
 51
259.361290685
  0
ARC
  5
1D3
330
1F
100
AcDbEntity
  8
0
  6
SLD-Plná
 62
     7
370
    25
100
AcDbCircle
 10
7048.714294953
 20
4235.3723193348
 30
0.0
 40
4.562499999999907
100
AcDbArc
 50
258.6232071508
 51
281.3767928492
  0
ARC
  5
1D4
330
1F
100
AcDbEntity
  8
0
  6
SLD-Plná
 62
     7
370
    25
100
AcDbCircle
 10
7048.714294953
 20
4235.3723193348
 30
0.0
 40
4.562499999999907
100
AcDbArc
 50
78.6232071508
 51
101.3767928492
  0
LINE
  5
1D5
330
1F
100
AcDbEntity
  8
0
  6
SLD-Plná
 62
     7
370
    25
100
AcDbLine
 10
7223.714294953
 20
4407.7769386361
 30
0.0
 11
6873.714294953
 21
4407.7769386361
 31
0.0
  0
LINE
  5
1D6
330
1F
100
AcDbEntity
  8
0
  6
SLD-Plná
 62
     7
370
    25
100
AcDbLine
 10
7223.714294953
 20
4407.7769386361
 30
0.0
 11
7223.714294953
 21
4409.1815579374
 31
0.0
  0
LINE
  5
1D7
330
1F
100
AcDbEntity
  8
0
  6
SLD-Plná
 62
     7
370
    25
100
AcDbLine
 10
6873.714294953
 20
4407.7769386361
 30
0.0
 11
6873.714294953
 21
4409.1815579374
 31
0.0
  0
LINE
  5
1D8
330
1F
100
AcDbEntity
  8
0
  6
SLD-Plná
 62
     7
370
    25
100
AcDbLine
 10
7223.714294953
 20
4406.3723193348
 30
0.0
 11
6873.714294953
 21
4406.3723193348
 31
0.0
  0
LINE
  5
1D9
330
1F
100
AcDbEntity
  8
0
  6
SLD-Plná
 62
     7
370
    25
100
AcDbLine
 10
7223.714294953
 20
4406.3723193348
 30
0.0
 11
7223.714294953
 21
4407.7769386361
 31
0.0
  0
LINE
  5
1DA
330
1F
100
AcDbEntity
  8
0
  6
SLD-Plná
 62
     7
370
    25
100
AcDbLine
 10
6873.714294953
 20
4406.3723193348
 30
0.0
 11
6873.714294953
 21
4407.7769386361
 31
0.0
  0
LINE
  5
1DB
330
1F
100
AcDbEntity
  8
0
  6
SLD-Plná
 62
     7
370
    25
100
AcDbLine
 10
7222.114294953
 20
4404.8723193348
 30
0.0
 11
6875.314294953
 21
4404.8723193348
 31
0.0
  0
LINE
  5
1DC
330
1F
100
AcDbEntity
  8
0
  6
SLD-Plná
 62
     7
370
    25
100
AcDbLine
 10
6875.314294953
 20
4406.3723193348
 30
0.0
 11
6875.314294953
 21
4404.8723193348
 31
0.0
  0
LINE
  5
1DD
330
1F
100
AcDbEntity
  8
0
  6
SLD-Plná
 62
     7
370
    25
100
AcDbLine
 10
7222.114294953
 20
4406.3723193348
 30
0.0
 11
7222.114294953
 21
4404.8723193348
 31
0.0
  0
LINE
  5
1DE
330
1F
100
AcDbEntity
  8
0
  6
SLD-Plná
 62
     7
370
    25
100
AcDbLine
 10
6875.214294953
 20
4406.3723193348
 30
0.0
 11
6875.214294953
 21
4235.3723193348
 31
0.0
  0
LINE
  5
1DF
330
1F
100
AcDbEntity
  8
0
  6
SLD-Plná
 62
     7
370
    25
100
AcDbLine
 10
6873.714294953
 20
4235.3723193348
 30
0.0
 11
6875.214294953
 21
4235.3723193348
 31
0.0
  0
LINE
  5
1E0
330
1F
100
AcDbEntity
  8
0
  6
SLD-Plná
 62
     7
370
    25
100
AcDbLine
 10
6873.714294953
 20
4235.3723193348
 30
0.0
 11
6873.714294953
 21
4405.8723193348
 31
0.0
  0
ARC
  5
1E1
330
1F
100
AcDbEntity
  8
0
  6
SLD-Plná
 62
     7
370
    25
100
AcDbCircle
 10
6875.214294953
 20
4405.8723193348
 30
0.0
 40
1.500000000000225
100
AcDbArc
 50
160.5287793655
 51
180.0
  0
LINE
  5
1E2
330
1F
100
AcDbEntity
  8
0
  6
SLD-Plná
 62
     7
370
    25
100
AcDbLine
 10
7222.214294953
 20
4235.3723193348
 30
0.0
 11
7222.214294953
 21
4406.3723193348
 31
0.0
  0
ARC
  5
1E3
330
1F
100
AcDbEntity
  8
0
  6
SLD-Plná
 62
     7
370
    25
100
AcDbCircle
 10
7048.714294953
 20
4235.3723193348
 30
0.0
 40
173.5
100
AcDbArc
 50
180.0
 51
0.0
  0
LINE
  5
1E4
330
1F
100
AcDbEntity
  8
0
  6
SLD-Plná
 62
     7
370
    25
100
AcDbLine
 10
7223.714294953
 20
4405.8723193348
 30
0.0
 11
7223.714294953
 21
4235.3723193348
 31
0.0
  0
LINE
  5
1E5
330
1F
100
AcDbEntity
  8
0
  6
SLD-Plná
 62
     7
370
    25
100
AcDbLine
 10
7223.714294953
 20
4235.3723193348
 30
0.0
 11
7222.214294953
 21
4235.3723193348
 31
0.0
  0
ARC
  5
1E6
330
1F
100
AcDbEntity
  8
0
  6
SLD-Plná
 62
     7
370
    25
100
AcDbCircle
 10
7222.214294953
 20
4405.8723193348
 30
0.0
 40
1.500000000000225
100
AcDbArc
 50
0.0
 51
19.4712206345
  0
ARC
  5
1E7
330
1F
100
AcDbEntity
  8
0
  6
SLD-Plná
 62
     7
370
    25
100
AcDbCircle
 10
7048.714294953
 20
4235.3723193348
 30
0.0
 40
175.0
100
AcDbArc
 50
180.0
 51
0.0
  0
LINE
  5
1E8
330
1F
100
AcDbEntity
  8
0
  6
SLD-Plná
 62
     7
370
    25
100
AcDbLine
 10
7048.714294953
 20
4230.7723193348
 30
0.0
 11
7047.814294953
 21
4230.8612219073
 31
0.0
  0
LWPOLYLINE
  5
1E9
330
1F
100
AcDbEntity
  8
0
  6
SLD-Plná
 62
     7
370
    25
100
AcDbPolyline
 90
        3
 70
   128
 43
0.0
 10
7047.814294953
 20
4239.8834167623
 10
7048.714294953
 20
4239.9723193348
 10
7049.614294953
 20
4239.8834167623
  0
LINE
  5
1EA
330
1F
100
AcDbEntity
  8
0
  6
SLD-Plná
 62
     7
370
    25
100
AcDbLine
 10
7049.614294953
 20
4230.8612219073
 30
0.0
 11
7048.714294953
 21
4230.7723193348
 31
0.0
  0
SPLINE
  5
1EB
330
1F
100
AcDbEntity
  8
0
  6
SLD-Plná
 62
     7
370
    25
100
AcDbSpline
210
0.0
220
0.0
230
1.0
 70
    11
 71
     3
 72
    26
 73
    22
 74
     0
 42
0.00000001
 43
0.00000001
 40
0.0
 40
0.0
 40
0.0
 40
0.0
 40
0.0535696648473168
 40
0.1071378406030172
 40
0.1607490568822183
 40
0.2144510879161825
 40
0.2682383244952475
 40
0.3220678250395662
 40
0.3758778495404024
 40
0.4296150357974615
 40
0.4832581064467986
 40
0.5368272487212508
 40
0.5903750146117264
 40
0.6439631391414814
 40
0.6976356399715661
 40
0.7513996980887638
 40
0.8052224135027505
 40
0.8590450361222262
 40
0.9128087741867666
 40
0.9664807974787976
 40
1.0
 40
1.0
 40
1.0
 40
1.0
 10
7057.97739378737
 20
4226.109220502105
 30
0.0
 10
7058.334937898431
 20
4226.40281795343
 30
0.0
 10
7059.050016181795
 20
4226.990004694868
 30
0.0
 10
7060.415153376068
 20
4227.358362869967
 30
0.0
 10
7061.809025473513
 20
4227.283875937474
 30
0.0
 10
7063.10538611654
 20
4226.744438084895
 30
0.0
 10
7064.150066728162
 20
4225.807305863237
 30
0.0
 10
7064.826049320563
 20
4224.575319988931
 30
0.0
 10
7065.055242863815
 20
4223.188765315987
 30
0.0
 10
7064.8119619544
 20
4221.805353118101
 30
0.0
 10
7064.124903809749
 20
4220.58191043275
 30
0.0
 10
7063.072923692462
 20
4219.65568051413
 30
0.0
 10
7061.774776770322
 20
4219.129556007543
 30
0.0
 10
7060.375594985475
 20
4219.061920001713
 30
0.0
 10
7059.03171270421
 20
4219.460894442427
 30
0.0
 10
7057.894219422626
 20
4220.283128872145
 30
0.0
 10
7057.092870271396
 20
4221.436509999233
 30
0.0
 10
7056.717994477651
 20
4222.792419327595
 30
0.0
 10
7056.817958853931
 20
4224.189853434764
 30
0.0
 10
7057.292041731566
 20
4225.332271059383
 30
0.0
 10
7057.787083350452
 20
4225.893475051785
 30
0.0
 10
7057.97739378737
 20
4226.109220502105
 30
0.0
  0
SPLINE
  5
1EC
330
1F
100
AcDbEntity
  8
0
  6
SLD-Plná
 62
     7
370
    25
100
AcDbSpline
210
0.0
220
0.0
230
1.0
 70
    11
 71
     3
 72
    26
 73
    22
 74
     0
 42
0.00000001
 43
0.00000001
 40
0.0
 40
0.0
 40
0.0
 40
0.0
 40
0.0537588930341594
 40
0.1075154333757186
 40
0.1613243347945579
 40
0.2151542017337996
 40
0.268943066120431
 40
0.3226469021010954
 40
0.3762591774803682
 40
0.4298136325100956
 40
0.4833692252187516
 40
0.5369842572237906
 40
0.5906910324809589
 40
0.6444817868912962
 40
0.6983119184869697
 40
0.7521194097438855
 40
0.8058521674356502
 40
0.8594910546919398
 40
0.9130581702041403
 40
0.9666068712870959
 40
1.0
 40
1.0
 40
1.0
 40
1.0
 10
7063.038706095663
 20
4238.294816336284
 30
0.0
 10
7063.399575330315
 20
4238.586132810569
 30
0.0
 10
7064.121298006618
 20
4239.168753010028
 30
0.0
 10
7065.49299217221
 20
4239.525224610796
 30
0.0
 10
7066.889452839773
 20
4239.43653989468
 30
0.0
 10
7068.182611105015
 20
4238.881800974343
 30
0.0
 10
7069.217407726856
 20
4237.931831279509
 30
0.0
 10
7069.878668218393
 20
4236.692973995631
 30
0.0
 10
7070.092132856371
 20
4235.306762106161
 30
0.0
 10
7069.835427672408
 20
4233.929271394325
 30
0.0
 10
7069.13822192626
 20
4232.714509467277
 30
0.0
 10
7068.078407765328
 20
4231.79806351887
 30
0.0
 10
7066.773938762042
 20
4231.283148787019
 30
0.0
 10
7065.370972531625
 20
4231.229067920023
 30
0.0
 10
7064.028282968099
 20
4231.643311334779
 30
0.0
 10
7062.898656188342
 20
4232.479577494199
 30
0.0
 10
7062.110880235085
 20
4233.641960436135
 30
0.0
 10
7061.751868111834
 20
4234.999718928273
 30
0.0
 10
7061.866131354905
 20
4236.392683072404
 30
0.0
 10
7062.349588456278
 20
4237.52668489315
 30
0.0
 10
7062.847474932953
 20
4238.081658726335
 30
0.0
 10
7063.038706095663
 20
4238.294816336284
 30
0.0
  0
SPLINE
  5
1ED
330
1F
100
AcDbEntity
  8
0
  6
SLD-Plná
 62
     7
370
    25
100
AcDbSpline
210
0.0
220
0.0
230
1.0
 70
    11
 71
     3
 72
    26
 73
    22
 74
     0
 42
0.00000001
 43
0.00000001
 40
0.0
 40
0.0
 40
0.0
 40
0.0
 40
0.0538071611491443
 40
0.107615864346353
 40
0.1613800744004091
 40
0.2150524772032106
 40
0.2686403342244665
 40
0.3221880260003179
 40
0.3757573634640424
 40
0.4294005703084995
 40
0.4831376074843806
 40
0.536947416706415
 40
0.5907769476910281
 40
0.6445643720043431
 40
0.6982664001994032
 40
0.7518773772603788
 40
0.8054315513957356
 40
0.8589878133589165
 40
0.9126039896524322
 40
0.9663118353837229
 40
1.0
 40
1.0
 40
1.0
 40
1.0
 10
7058.002511135305
 20
4250.458595374076
 30
0.0
 10
7058.36360151972
 20
4250.74978839547
 30
0.0
 10
7059.085792636964
 20
4251.332182783499
 30
0.0
 10
7060.458770660007
 20
4251.687971277831
 30
0.0
 10
7061.855372450614
 20
4251.597791216637
 30
0.0
 10
7063.146494366758
 20
4251.042584353195
 30
0.0
 10
7064.178756457364
 20
4250.094526928438
 30
0.0
 10
7064.839300700028
 20
4248.858980627348
 30
0.0
 10
7065.054366244086
 20
4247.474956760464
 30
0.0
 10
7064.7998040708
 20
4246.096803521041
 30
0.0
 10
7064.102944876958
 20
4244.879169553611
 30
0.0
 10
7063.041006156564
 20
4243.960041759397
 30
0.0
 10
7061.73359951171
 20
4243.444579323828
 30
0.0
 10
7060.329360574246
 20
4243.391814369742
 30
0.0
 10
7058.988065394747
 20
4243.807087666631
 30
0.0
 10
7057.861097945018
 20
4244.642192646908
 30
0.0
 10
7057.074771265339
 20
4245.801469339724
 30
0.0
 10
7056.714777254374
 20
4247.156427958489
 30
0.0
 10
7056.826824923059
 20
4248.549100217308
 30
0.0
 10
7057.309711581835
 20
4249.686445012484
 30
0.0
 10
7057.809759725715
 20
4250.243766900433
 30
0.0
 10
7058.002511135305
 20
4250.458595374076
 30
0.0
  0
SPLINE
  5
1EE
330
1F
100
AcDbEntity
  8
0
  6
SLD-Plná
 62
     7
370
    25
100
AcDbSpline
210
0.0
220
0.0
230
1.0
 70
    11
 71
     3
 72
    26
 73
    22
 74
     0
 42
0.00000001
 43
0.00000001
 40
0.0
 40
0.0
 40
0.0
 40
0.0
 40
0.0536194288228259
 40
0.1072412225944927
 40
0.1608105154518538
 40
0.2143581249611345
 40
0.2679457970084742
 40
0.3216177014171709
 40
0.375381234154626
 40
0.4292036801532182
 40
0.4830263625805908
 40
0.5367904175851499
 40
0.5904628291857381
 40
0.6440509208438512
 40
0.6975988723948144
 40
0.7511681902631072
 40
0.8048109680893942
 40
0.858547363927827
 40
0.9123567172059116
 40
0.9661862601349677
 40
1.0
 40
1.0
 40
1.0
 40
1.0
 10
7045.828012416817
 20
4255.484255653035
 30
0.0
 10
7046.186924285385
 20
4255.776343577761
 30
0.0
 10
7046.904763852758
 20
4256.360532310101
 30
0.0
 10
7048.272635685547
 20
4256.72289964855
 30
0.0
 10
7049.666390521712
 20
4256.641482127237
 30
0.0
 10
7050.958642947729
 20
4256.096478008134
 30
0.0
 10
7051.997119221993
 20
4255.157117091151
 30
0.0
 10
7052.667512961404
 20
4253.925781277378
 30
0.0
 10
7052.892839669579
 20
4252.540576910991
 30
0.0
 10
7052.646311252776
 20
4251.157542289749
 30
0.0
 10
7051.954881986167
 20
4249.933959900932
 30
0.0
 10
7050.897209023329
 20
4249.009144180293
 30
0.0
 10
7049.594070874525
 20
4248.487501151911
 30
0.0
 10
7048.193308814598
 20
4248.426623513682
 30
0.0
 10
7046.85232810805
 20
4248.831905434407
 30
0.0
 10
7045.720701360082
 20
4249.657486722364
 30
0.0
 10
7044.925365527503
 20
4250.810925691753
 30
0.0
 10
7044.554869720424
 20
4252.165452970587
 30
0.0
 10
7044.658082105697
 20
4253.562115121193
 30
0.0
 10
7045.135999482925
 20
4254.705964094584
 30
0.0
 10
7045.63535541916
 20
4255.267578611884
 30
0.0
 10
7045.828012416817
 20
4255.484255653035
 30
0.0
  0
SPLINE
  5
1EF
330
1F
100
AcDbEntity
  8
0
  6
SLD-Plná
 62
     7
370
    25
100
AcDbSpline
210
0.0
220
0.0
230
1.0
 70
    11
 71
     3
 72
    26
 73
    22
 74
     0
 42
0.00000001
 43
0.00000001
 40
0.0
 40
0.0
 40
0.0
 40
0.0
 40
0.0536047210207997
 40
0.1072071498641634
 40
0.1608698090471758
 40
0.2146252617456414
 40
0.2684443811852605
 40
0.3222700262376494
 40
0.3760420932417373
 40
0.4297240934865726
 40
0.4833192011578433
 40
0.5368686048876292
 40
0.5904332580329946
 40
0.6440673478508698
 40
0.6977948698348561
 40
0.7515991064697845
 40
0.8054296199416041
 40
0.8592241700167936
 40
0.9129362080791226
 40
0.9665555647369182
 40
1.0
 40
1.0
 40
1.0
 40
1.0
 10
7034.274058292767
 20
4250.943473085419
 30
0.0
 10
7034.682226270296
 20
4251.161782985771
 30
0.0
 10
7035.49854477179
 20
4251.598393451381
 30
0.0
 10
7036.909905123109
 20
4251.693104414912
 30
0.0
 10
7038.263064815215
 20
4251.347521113767
 30
0.0
 10
7039.429639945228
 20
4250.564394092194
 30
0.0
 10
7040.271030229876
 20
4249.440182434603
 30
0.0
 10
7040.692534119874
 20
4248.099324418209
 30
0.0
 10
7040.645552582125
 20
4246.695074725297
 30
0.0
 10
7040.136366239316
 20
4245.386847617581
 30
0.0
 10
7039.22388820537
 20
4244.322127476202
 30
0.0
 10
7038.011766058823
 20
4243.619608051107
 30
0.0
 10
7036.635933052128
 20
4243.357140912349
 30
0.0
 10
7035.249971490469
 20
4243.564221044918
 30
0.0
 10
7034.009259012246
 20
4244.218699801733
 30
0.0
 10
7033.054165078833
 20
4245.248359427525
 30
0.0
 10
7032.494182020626
 20
4246.536839818969
 30
0.0
 10
7032.392350798176
 20
4247.939782845635
 30
0.0
 10
7032.763934490699
 20
4249.289908418375
 30
0.0
 10
7033.451654586138
 20
4250.316316140209
 30
0.0
 10
7034.045818045863
 20
4250.769419327065
 30
0.0
 10
7034.274058292767
 20
4250.943473085419
 30
0.0
  0
SPLINE
  5
1F0
330
1F
100
AcDbEntity
  8
0
  6
SLD-Plná
 62
     7
370
    25
100
AcDbSpline
210
0.0
220
0.0
230
1.0
 70
    11
 71
     3
 72
    26
 73
    22
 74
     0
 42
0.00000001
 43
0.00000001
 40
0.0
 40
0.0
 40
0.0
 40
0.0
 40
0.0537562068349937
 40
0.1075100238238335
 40
0.1613172360448455
 40
0.2151474167966026
 40
0.2689384891421617
 40
0.3226456009169191
 40
0.3762609071995831
 40
0.4298168132318883
 40
0.4833715113559026
 40
0.5369835592148966
 40
0.590686551716783
 40
0.6444745061411249
 40
0.6983042003893389
 40
0.752113842731897
 40
0.8058502744076983
 40
0.8594925869960589
 40
0.9130613368302144
 40
0.9666092822105763
 40
1.0
 40
1.0
 40
1.0
 40
1.0
 10
7028.602358634744
 20
4238.258601870961
 30
0.0
 10
7028.959542442773
 20
4238.554403491478
 30
0.0
 10
7029.673894179467
 20
4239.145993582024
 30
0.0
 10
7031.040966157433
 20
4239.51961119831
 30
0.0
 10
7032.438388568268
 20
4239.448450259175
 30
0.0
 10
7033.738393583732
 20
4238.909989441089
 30
0.0
 10
7034.785045693698
 20
4237.97306617171
 30
0.0
 10
7035.461812976853
 20
4236.742554676255
 30
0.0
 10
7035.692632880266
 20
4235.359066367156
 30
0.0
 10
7035.453173412556
 20
4233.978427599315
 30
0.0
 10
7034.771205539151
 20
4232.755034822747
 30
0.0
 10
7033.722958674767
 20
4231.825427484493
 30
0.0
 10
7032.425093002881
 20
4231.294245828158
 30
0.0
 10
7031.022975197772
 20
4231.222585999499
 30
0.0
 10
7029.675224204074
 20
4231.61993977336
 30
0.0
 10
7028.535181265903
 20
4232.44196938976
 30
0.0
 10
7027.732860748846
 20
4233.594420785474
 30
0.0
 10
7027.356852346838
 20
4234.947634990397
 30
0.0
 10
7027.453681053424
 20
4236.341964064556
 30
0.0
 10
7027.922923006467
 20
4237.481929268725
 30
0.0
 10
7028.413819118135
 20
4238.043079647965
 30
0.0
 10
7028.602358634744
 20
4238.258601870961
 30
0.0
  0
SPLINE
  5
1F1
330
1F
100
AcDbEntity
  8
0
  6
SLD-Plná
 62
     7
370
    25
100
AcDbSpline
210
0.0
220
0.0
230
1.0
 70
    11
 71
     3
 72
    26
 73
    22
 74
     0
 42
0.00000001
 43
0.00000001
 40
0.0
 40
0.0
 40
0.0
 40
0.0
 40
0.0538093119840906
 40
0.107620090096772
 40
0.1613880879382162
 40
0.2150651672522091
 40
0.268656628973331
 40
0.3222052237837719
 40
0.3757722233381178
 40
0.4294107677072213
 40
0.4831428917530536
 40
0.5369498406959888
 40
0.5907799501670997
 40
0.6445711209940036
 40
0.698278267065498
 40
0.751893351649833
 40
0.8054488387631549
 40
0.859003196473443
 40
0.9126152254084969
 40
0.966318495740419
 40
1.0
 40
1.0
 40
1.0
 40
1.0
 10
7033.628018913702
 20
4226.084103152473
 30
0.0
 10
7033.984045452703
 20
4226.381491217547
 30
0.0
 10
7034.69610823127
 20
4226.97627545055
 30
0.0
 10
7036.062782868687
 20
4227.355685087631
 30
0.0
 10
7037.460781257618
 20
4227.289580351882
 30
0.0
 10
7038.761340513955
 20
4226.756651520986
 30
0.0
 10
7039.809808367518
 20
4225.826429653745
 30
0.0
 10
7040.491499058712
 20
4224.602370430202
 30
0.0
 10
7040.730295645007
 20
4223.222250571471
 30
0.0
 10
7040.499456605163
 20
4221.839986189552
 30
0.0
 10
7039.823684289338
 20
4220.610621873739
 30
0.0
 10
7038.777785456319
 20
4219.673390772271
 30
0.0
 10
7037.47947979595
 20
4219.135481734555
 30
0.0
 10
7036.076324622722
 20
4219.058523264437
 30
0.0
 10
7034.728005223668
 20
4219.450662241649
 30
0.0
 10
7033.58677795214
 20
4220.266311794537
 30
0.0
 10
7032.780624878303
 20
4221.411949937228
 30
0.0
 10
7032.397417437812
 20
4222.760523049105
 30
0.0
 10
7032.485518157414
 20
4224.154863006655
 30
0.0
 10
7032.948733307034
 20
4225.300237912756
 30
0.0
 10
7033.439036801824
 20
4225.866026239058
 30
0.0
 10
7033.628018913702
 20
4226.084103152472
 30
0.0
  0
SPLINE
  5
1F2
330
1F
100
AcDbEntity
  8
0
  6
SLD-Plná
 62
     7
370
    25
100
AcDbSpline
210
0.0
220
0.0
230
1.0
 70
    11
 71
     3
 72
    26
 73
    22
 74
     0
 42
0.00000001
 43
0.00000001
 40
0.0
 40
0.0
 40
0.0
 40
0.0
 40
0.0536224173293981
 40
0.1072472278510864
 40
0.1608186709777109
 40
0.2143662689735044
 40
0.2679516214335253
 40
0.3216198445698442
 40
0.3753800267393253
 40
0.4292010816187901
 40
0.4830250319052702
 40
0.5367923856657645
 40
0.5904685134946944
 40
0.6440590117320856
 40
0.6976070716126755
 40
0.751174315154828
 40
0.8048138479822117
 40
0.8585471995569683
 40
0.9123548911420913
 40
0.9661847720115828
 40
1.0
 40
1.0
 40
1.0
 40
1.0
 10
7045.79179795415
 20
4221.047908194815
 30
0.0
 10
7046.147040066999
 20
4221.344474145443
 30
0.0
 10
7046.857540147309
 20
4221.937619282568
 30
0.0
 10
7048.220831978269
 20
4222.317066577149
 30
0.0
 10
7049.615544798266
 20
4222.253049801715
 30
0.0
 10
7050.91451613673
 20
4221.724195107344
 30
0.0
 10
7051.964613058424
 20
4220.797868287012
 30
0.0
 10
7052.650295769026
 20
4219.575039849852
 30
0.0
 10
7052.892902842184
 20
4218.192821832504
 30
0.0
 10
7052.663703792567
 20
4216.806855636255
 30
0.0
 10
7051.987647166423
 20
4215.574718222892
 30
0.0
 10
7050.941601139401
 20
4214.636715507862
 30
0.0
 10
7049.64502909161
 20
4214.098802203744
 30
0.0
 10
7048.245082556477
 20
4214.020440306526
 30
0.0
 10
7046.899129452154
 20
4214.40897099011
 30
0.0
 10
7045.757307466728
 20
4215.220364070107
 30
0.0
 10
7044.947664244297
 20
4216.363747952765
 30
0.0
 10
7044.560287640939
 20
4217.713485454768
 30
0.0
 10
7044.64601871714
 20
4219.111286144182
 30
0.0
 10
7045.10957492901
 20
4220.261010997755
 30
0.0
 10
7045.601863299488
 20
4220.828831673106
 30
0.0
 10
7045.79179795415
 20
4221.047908194815
 30
0.0
  0
ARC
  5
1F3
330
1F
100
AcDbEntity
  8
0
  6
SLD-Plná
 62
     8
370
    25
100
AcDbCircle
 10
6963.5312370146
 20
4292.0553772732
 30
0.0
 40
5.005577533700992
100
AcDbArc
 50
227.7050292788
 51
42.2949707212
  0
LINE
  5
1F4
330
1F
100
AcDbEntity
  8
0
  6
SLD-Plná
 62
     8
370
    25
100
AcDbLine
 10
6909.3136823188
 20
4337.2756133834
 30
0.0
 11
6906.7619139596
 21
4336.1862100064
 31
0.0
  0
SPLINE
  5
1F5
330
1F
100
AcDbEntity
  8
0
  6
SLD-Plná
 62
     8
370
    25
100
AcDbSpline
210
0.0
220
0.0
230
1.0
 70
     8
 71
     3
 72
     9
 73
     5
 74
     0
 42
0.00000001
 43
0.00000001
 40
0.0
 40
0.0
 40
0.0
 40
0.0
 40
0.8767282158468054
 40
1.0
 40
1.0
 40
1.0
 40
1.0
 10
6919.400404281382
 20
4348.82470032822
 30
0.0
 10
6919.119373969674
 20
4348.055350373956
 30
0.0
 10
6918.798829579032
 20
4347.177826484159
 30
0.0
 10
6918.37639129947
 20
4346.346441752411
 30
0.0
 10
6918.324316579053
 20
4346.24395547321
 30
0.0
  0
LINE
  5
1F6
330
1F
100
AcDbEntity
  8
0
  6
SLD-Plná
 62
     8
370
    25
100
AcDbLine
 10
6923.8960464703
 20
4342.7400497029
 30
0.0
 11
6923.5843177339
 21
4342.5407896215
 31
0.0
  0
LINE
  5
1F7
330
1F
100
AcDbEntity
  8
0
  6
SLD-Plná
 62
     8
370
    25
100
AcDbLine
 10
6922.4104460891
 20
4344.130694558
 30
0.0
 11
6919.4004042814
 21
4348.8247003282
 31
0.0
  0
LINE
  5
1F8
330
1F
100
AcDbEntity
  8
0
  6
SLD-Plná
 62
     8
370
    25
100
AcDbLine
 10
6912.8465645847
 20
4331.6905678176
 30
0.0
 11
6913.045824666
 21
4332.0022965541
 31
0.0
  0
SPLINE
  5
1F9
330
1F
100
AcDbEntity
  8
0
  6
SLD-Plná
 62
     8
370
    25
100
AcDbSpline
210
0.0
220
0.0
230
1.0
 70
     8
 71
     3
 72
     9
 73
     5
 74
     0
 42
0.00000001
 43
0.00000001
 40
0.0
 40
0.0
 40
0.0
 40
0.0
 40
0.2206157716079916
 40
1.0
 40
1.0
 40
1.0
 40
1.0
 10
6914.891948483622
 20
4331.347263196109
 30
0.0
 10
6915.072923655894
 20
4331.261394259199
 30
0.0
 10
6915.893242035457
 20
4330.872170332531
 30
0.0
 10
6916.820789535097
 20
4330.928184494278
 30
0.0
 10
6917.543705427401
 20
4330.971841048511
 30
0.0
  0
SPLINE
  5
1FA
330
1F
100
AcDbEntity
  8
0
  6
SLD-Plná
 62
     8
370
    25
100
AcDbSpline
210
0.0
220
0.0
230
1.0
 70
     8
 71
     3
 72
     9
 73
     5
 74
     0
 42
0.00000001
 43
0.00000001
 40
0.0
 40
0.0
 40
0.0
 40
0.0
 40
0.6352740639313356
 40
1.0
 40
1.0
 40
1.0
 40
1.0
 10
6924.604020516274
 20
4338.05366158337
 30
0.0
 10
6924.64076066611
 20
4338.727826943632
 30
0.0
 10
6924.69859420902
 20
4339.789046657358
 30
0.0
 10
6924.232619717411
 20
4340.730515004935
 30
0.0
 10
6924.062666734774
 20
4341.073892929285
 30
0.0
  0
LINE
  5
1FB
330
1F
100
AcDbEntity
  8
0
  6
SLD-Plná
 62
     8
370
    25
100
AcDbLine
 10
6906.7619139596
 20
4336.1862100064
 30
0.0
 11
6911.4559197298
 21
4333.1761681987
 31
0.0
  0
LINE
  5
1FC
330
1F
100
AcDbEntity
  8
0
  6
SLD-Plná
 62
     8
370
    25
100
AcDbLine
 10
7168.4374615896
 20
4339.6091615669
 30
0.0
 11
7168.6748863975
 21
4339.8785676702
 31
0.0
  0
LINE
  5
1FD
330
1F
100
AcDbEntity
  8
0
  6
SLD-Plná
 62
     8
370
    25
100
AcDbLine
 10
7181.7188620167
 20
4326.8311112252
 30
0.0
 11
7181.4511371851
 21
4326.5954859714
 31
0.0
  0
LINE
  5
1FE
330
1F
100
AcDbEntity
  8
0
  6
SLD-Plná
 62
     8
370
    25
100
AcDbLine
 10
7166.6981625378
 20
4337.1429600065
 30
0.0
 11
7166.5343550592
 21
4336.9791525279
 31
0.0
  0
LINE
  5
1FF
330
1F
100
AcDbEntity
  8
0
  6
SLD-Plná
 62
     8
370
    25
100
AcDbLine
 10
7178.9849356246
 20
4324.8561869196
 30
0.0
 11
7178.821128146
 21
4324.692379441
 31
0.0
  0
ARC
  5
200
330
1F
100
AcDbEntity
  8
0
  6
SLD-Plná
 62
     8
370
    25
100
AcDbCircle
 10
7048.714294953
 20
4235.3723193348
 30
0.0
 40
144.3225554097494
100
AcDbArc
 50
145.0367646391
 51
270.0
  0
ARC
  5
201
330
1F
100
AcDbEntity
  8
0
  6
SLD-Plná
 62
     8
370
    25
100
AcDbCircle
 10
7048.714294953
 20
4235.3723193348
 30
0.0
 40
144.3225554097494
100
AcDbArc
 50
270.0
 51
141.0266375924
  0
ARC
  5
202
330
1F
100
AcDbEntity
  8
0
  6
SLD-Plná
 62
     8
370
    25
100
AcDbCircle
 10
7048.714294953
 20
4235.3723193348
 30
0.0
 40
141.8602660434449
100
AcDbArc
 50
270.0
 51
141.131640531
  0
ARC
  5
203
330
1F
100
AcDbEntity
  8
0
  6
SLD-Plná
 62
     8
370
    25
100
AcDbCircle
 10
7048.714294953
 20
4235.3723193348
 30
0.0
 40
141.8602660434449
100
AcDbArc
 50
145.2128264704
 51
270.0
  0
LWPOLYLINE
  5
204
330
1F
100
AcDbEntity
  8
0
  6
SLD-Plná
 62
     7
100
AcDbPolyline
 90
       17
 70
   128
 43
0.0
 10
7493.6255619415
 20
4801.1060647031
 10
7493.5929147909
 20
4801.0201380742
 10
7493.5395011785
 20
4800.9584207311
 10
7493.4734528425
 20
4800.9303085797
 10
7493.4048250433
 20
4800.9400814403
 10
7493.3440657413
 20
4800.9862514834
 10
7493.3004249895
 20
4801.0617897386
 10
7493.2805466966
 20
4801.1551961911
 10
7493.2874571526
 20
4801.2522505555
 10
7493.3201043032
 20
4801.3381771843
 10
7493.3735179157
 20
4801.3998945275
 10
7493.4395662517
 20
4801.4280066789
 10
7493.5081940508
 20
4801.4182338183
 10
7493.5689533528
 20
4801.3720637751
 10
7493.6125941047
 20
4801.29652552
 10
7493.6324723975
 20
4801.2031190674
 10
7493.6255619415
 20
4801.1060647031
  0
LINE
  5
205
330
1F
100
AcDbEntity
  8
0
  6
SLD-Plná
 62
     7
370
    25
100
AcDbLine
 10
7496.0504444197
 20
4804.1791576293
 30
0.0
 11
7495.3004444197
 21
4816.1791576293
 31
0.0
  0
LINE
  5
206
330
1F
100
AcDbEntity
  8
0
  6
SLD-Plná
 62
     7
370
    25
100
AcDbLine
 10
7481.1842052157
 20
4814.3193303661
 30
0.0
 11
7481.1486938712
 21
4813.7511488541
 31
0.0
  0
LINE
  5
207
330
1F
100
AcDbEntity
  8
0
  6
SLD-Plná
 62
     7
370
    25
100
AcDbLine
 10
7483.3004444197
 20
4999.1791576293
 30
0.0
 11
7483.3004444197
 21
4817.1383056245
 31
0.0
  0
LINE
  5
208
330
1F
100
AcDbEntity
  8
0
  6
SLD-Plná
 62
     7
370
    25
100
AcDbLine
 10
7493.3004444197
 20
4816.1791576293
 30
0.0
 11
7493.3004444197
 21
4999.1791576293
 31
0.0
  0
SPLINE
  5
209
330
1F
100
AcDbEntity
  8
0
  6
SLD-Plná
 62
     7
370
    25
100
AcDbSpline
210
0.0
220
0.0
230
1.0
 70
     8
 71
     3
 72
    35
 73
    31
 74
     0
 42
0.00000001
 43
0.00000001
 40
0.0
 40
0.0
 40
0.0
 40
0.0
 40
0.0184792132530177
 40
0.0545347344091648
 40
0.0905737527584603
 40
0.126568723953319
 40
0.1625074594380471
 40
0.198383143626928
 40
0.2341976522322292
 40
0.2699662450014655
 40
0.3057189167014521
 40
0.3415009882831146
 40
0.3774013583985464
 40
0.413555231037043
 40
0.450152507471883
 40
0.4874334386006191
 40
0.5256470619803271
 40
0.5649283685690148
 40
0.6050764455417669
 40
0.6452785362416865
 40
0.6846583322851836
 40
0.7229758772395618
 40
0.7603803603311018
 40
0.7971380743531743
 40
0.8334892300388554
 40
0.8696115027673393
 40
0.9056240840447096
 40
0.9416010422880693
 40
0.9775738236402617
 40
1.0
 40
1.0
 40
1.0
 40
1.0
 10
7493.30044441969
 20
4999.179157629274
 30
0.0
 10
7493.306019461172
 20
4999.695935318105
 30
0.0
 10
7493.322472185773
 20
5001.221018319372
 30
0.0
 10
7493.508006007041
 20
5003.744648499738
 30
0.0
 10
7493.926708374879
 20
5006.70604920239
 30
0.0
 10
7494.549694026976
 20
5009.582467562124
 30
0.0
 10
7495.36413848474
 20
5012.341209356012
 30
0.0
 10
7496.358919105794
 20
5014.951986740224
 30
0.0
 10
7497.519078345504
 20
5017.386844831812
 30
0.0
 10
7498.827656526474
 20
5019.620743064176
 30
0.0
 10
7500.265643643923
 20
5021.631928374322
 30
0.0
 10
7501.812918384617
 20
5023.402746539143
 30
0.0
 10
7503.44946603636
 20
5024.920119739263
 30
0.0
 10
7505.157216420936
 20
5026.175588984058
 30
0.0
 10
7506.921921301012
 20
5027.164263217525
 30
0.0
 10
7508.73491335495
 20
5027.882640194308
 30
0.0
 10
7510.593115012945
 20
5028.325026206047
 30
0.0
 10
7512.494850986022
 20
5028.479989635065
 30
0.0
 10
7514.428674250566
 20
5028.331201920816
 30
0.0
 10
7516.367235815439
 20
5027.867500437087
 30
0.0
 10
7518.273979465635
 20
5027.092997903821
 30
0.0
 10
7520.117266725066
 20
5026.024264354361
 30
0.0
 10
7521.877540929536
 20
5024.678997790741
 30
0.0
 10
7523.540686860078
 20
5023.072353161308
 30
0.0
 10
7525.093063616285
 20
5021.218537314798
 30
0.0
 10
7526.519409160906
 20
5019.133005786907
 30
0.0
 10
7527.804861831585
 20
5016.834781150164
 30
0.0
 10
7528.929889073499
 20
5014.343780338066
 30
0.0
 10
7529.772461287213
 20
5012.026176965505
 30
0.0
 10
7530.194665169555
 20
5010.521901192666
 30
0.0
 10
7530.356798520837
 20
5009.944234140083
 30
0.0
  0
SPLINE
  5
20A
330
1F
100
AcDbEntity
  8
0
  6
SLD-Plná
 62
     7
370
    25
100
AcDbSpline
210
0.0
220
0.0
230
1.0
 70
     8
 71
     3
 72
    39
 73
    35
 74
     0
 42
0.00000001
 43
0.00000001
 40
0.0
 40
0.0
 40
0.0
 40
0.0
 40
0.0178212536119639
 40
0.0508440033926849
 40
0.0839181205026847
 40
0.1170218952632216
 40
0.1501309246608383
 40
0.1832088367041614
 40
0.2162059449824003
 40
0.2490598579393278
 40
0.2817024404407011
 40
0.3140719661870918
 40
0.3461280163950245
 40
0.3778642982401489
 40
0.4093146322567258
 40
0.4405501607708752
 40
0.4716691889164611
 40
0.5027600287119789
 40
0.5339204901368505
 40
0.5652491174136479
 40
0.5968184339328931
 40
0.6286670463231241
 40
0.6607980125686733
 40
0.6931839683710933
 40
0.7257774716246687
 40
0.7585232272544371
 40
0.7913686070432253
 40
0.8242703131667923
 40
0.8571952577478482
 40
0.8901212070641932
 40
0.9230410198733738
 40
0.9559542289723036
 40
0.9888649868167171
 40
0.9999999999999999
 40
0.9999999999999999
 40
0.9999999999999999
 40
0.9999999999999999
 10
7540.021348160059
 20
5012.51259553814
 30
0.0
 10
7539.855072459287
 20
5013.110508212484
 30
0.0
 10
7539.380688194396
 20
5014.816351959777
 30
0.0
 10
7538.425347292186
 20
5017.540780799117
 30
0.0
 10
7537.093481763338
 20
5020.61976698389
 30
0.0
 10
7535.550965188853
 20
5023.528680695198
 30
0.0
 10
7533.812036017202
 20
5026.243202709008
 30
0.0
 10
7531.888075478707
 20
5028.737797522412
 30
0.0
 10
7529.794468767981
 20
5030.988590527051
 30
0.0
 10
7527.549218499124
 20
5032.973260745718
 30
0.0
 10
7525.173447865514
 20
5034.672163424475
 30
0.0
 10
7522.690832794071
 20
5036.06932798024
 30
0.0
 10
7520.126689608243
 20
5037.153289129496
 30
0.0
 10
7517.506703771552
 20
5037.917349447769
 30
0.0
 10
7514.855693705254
 20
5038.359163660792
 30
0.0
 10
7512.19673777213
 20
5038.479775990405
 30
0.0
 10
7509.551499910217
 20
5038.282492032356
 30
0.0
 10
7506.940074065304
 20
5037.772211430796
 30
0.0
 10
7504.380984950911
 20
5036.95484415871
 30
0.0
 10
7501.891279108448
 20
5035.836689537212
 30
0.0
 10
7499.487667629897
 20
5034.424595602142
 30
0.0
 10
7497.187502776115
 20
5032.726907397552
 30
0.0
 10
7495.008857383699
 20
5030.754475241642
 30
0.0
 10
7492.970092942214
 20
5028.521425666579
 30
0.0
 10
7491.08909156712
 20
5026.045424895243
 30
0.0
 10
7489.38243770228
 20
5023.347388856323
 30
0.0
 10
7487.864789624785
 20
5020.450812067496
 30
0.0
 10
7486.548616761731
 20
5017.381040120926
 30
0.0
 10
7485.444064078704
 20
5014.164621160331
 30
0.0
 10
7484.559355684497
 20
5010.828679975057
 30
0.0
 10
7483.899736012038
 20
5007.400451866061
 30
0.0
 10
7483.472517728771
 20
5003.907470615424
 30
0.0
 10
7483.314148416196
 20
5001.155189306386
 30
0.0
 10
7483.303209769692
 20
4999.577904024235
 30
0.0
 10
7483.30044441969
 20
4999.179157629274
 30
0.0
  0
LINE
  5
20B
330
1F
100
AcDbEntity
  8
0
  6
SLD-Plná
 62
     7
370
    25
100
AcDbLine
 10
7544.7515142659
 20
4994.7133383283
 30
0.0
 11
7540.0213481601
 21
5012.5125955381
 31
0.0
  0
LINE
  5
20C
330
1F
100
AcDbEntity
  8
0
  6
SLD-Plná
 62
     7
370
    25
100
AcDbLine
 10
7530.3567985208
 20
5009.9442341401
 30
0.0
 11
7535.0869646267
 21
4992.1449769302
 31
0.0
  0
LINE
  5
20D
330
1F
100
AcDbEntity
  8
0
  6
SLD-Plná
 62
     7
370
    25
100
AcDbLine
 10
7464.3429743363
 20
4767.6791576293
 30
0.0
 11
7464.3429743363
 21
4766.6791576293
 31
0.0
  0
LINE
  5
20E
330
1F
100
AcDbEntity
  8
0
  6
SLD-Plná
 62
     7
370
    25
100
AcDbLine
 10
7497.7487834358
 20
4766.6791576293
 30
0.0
 11
7497.7487834358
 21
4767.6791576293
 31
0.0
  0
SPLINE
  5
20F
330
1F
100
AcDbEntity
  8
0
  6
SLD-Plná
 62
     7
370
    25
100
AcDbSpline
210
0.0
220
0.0
230
1.0
 70
     8
 71
     3
 72
    12
 73
     8
 74
     0
 42
0.00000001
 43
0.00000001
 40
0.0
 40
0.0
 40
0.0
 40
0.0
 40
0.1507478143727382
 40
0.3502286606986595
 40
0.5715342071592951
 40
0.8764483327068
 40
1.0
 40
1.0
 40
1.0
 40
1.0
 10
7482.168195970041
 20
4824.20024411778
 30
0.0
 10
7482.135397455953
 20
4824.352863395788
 30
0.0
 10
7482.059197481117
 20
4824.707439981563
 30
0.0
 10
7481.671218741585
 20
4825.064032370979
 30
0.0
 10
7481.201313277685
 20
4825.3255487135
 30
0.0
 10
7480.764677553548
 20
4825.476908126508
 30
0.0
 10
7480.382986394118
 20
4825.531531865058
 30
0.0
 10
7480.272922580561
 20
4825.547283073403
 30
0.0
  0
SPLINE
  5
210
330
1F
100
AcDbEntity
  8
0
  6
SLD-Plná
 62
     7
370
    25
100
AcDbSpline
210
0.0
220
0.0
230
1.0
 70
     8
 71
     3
 72
    11
 73
     7
 74
     0
 42
0.00000001
 43
0.00000001
 40
0.0
 40
0.0
 40
0.0
 40
0.0
 40
0.1031748959291134
 40
0.506496805924642
 40
0.8892682190644682
 40
1.0
 40
1.0
 40
1.0
 40
1.0
 10
7457.001122845614
 20
4821.433516534431
 30
0.0
 10
7456.969361293508
 20
4821.408351744689
 30
0.0
 10
7456.813440373518
 20
4821.284815049919
 30
0.0
 10
7456.621739583094
 20
4820.962292492475
 30
0.0
 10
7456.448198793851
 20
4820.491925831686
 30
0.0
 10
7456.532651973079
 20
4820.242357486582
 30
0.0
 10
7456.551601497731
 20
4820.186359576842
 30
0.0
  0
LINE
  5
211
330
1F
100
AcDbEntity
  8
0
  6
SLD-Plná
 62
     7
370
    25
100
AcDbLine
 10
7483.4990057827
 20
4815.8571009916
 30
0.0
 11
7482.211977968
 21
4824.1615665424
 31
0.0
  0
LINE
  5
212
330
1F
100
AcDbEntity
  8
0
  6
SLD-Plná
 62
     7
370
    25
100
AcDbLine
 10
7456.5187086557
 20
4820.1796182697
 30
0.0
 11
7457.8057364704
 21
4811.8751527189
 31
0.0
  0
ARC
  5
213
330
1F
100
AcDbEntity
  8
0
  6
SLD-Plná
 62
     7
370
    25
100
AcDbCircle
 10
7473.5389421976
 20
4795.2407096376
 30
0.0
 40
31.06753134593064
100
AcDbArc
 50
76.8729988925
 51
120.7462525068
  0
LINE
  5
214
330
1F
100
AcDbEntity
  8
0
  6
SLD-Plná
 62
     7
370
    25
100
AcDbLine
 10
7458.5605011659
 20
4804.9901999548
 30
0.0
 11
7464.3429743363
 21
4767.6791576502
 31
0.0
  0
LINE
  5
215
330
1F
100
AcDbEntity
  8
0
  6
SLD-Plná
 62
     7
370
    25
100
AcDbLine
 10
7482.0882061735
 20
4808.6365286168
 30
0.0
 11
7481.7854327291
 21
4810.590155112
 31
0.0
  0
LINE
  5
216
330
1F
100
AcDbEntity
  8
0
  6
SLD-Plná
 62
     7
370
    25
100
AcDbLine
 10
7461.0331767461
 20
4807.3739661225
 30
0.0
 11
7461.3359501905
 21
4805.4203396273
 31
0.0
  0
SPLINE
  5
217
330
1F
100
AcDbEntity
  8
0
  6
SLD-Plná
 62
     7
370
    25
100
AcDbSpline
210
0.0
220
0.0
230
1.0
 70
     8
 71
     3
 72
    20
 73
    16
 74
     0
 42
0.00000001
 43
0.00000001
 40
0.0
 40
0.0
 40
0.0
 40
0.0
 40
0.1072374609144503
 40
0.19748738650417
 40
0.2705476035680709
 40
0.3284643491337633
 40
0.3752785358973648
 40
0.4115133215961052
 40
0.4464732073527313
 40
0.4972916121937991
 40
0.5639866634635887
 40
0.6465674941056974
 40
0.7814056021595003
 40
0.9445485819541032
 40
1.0
 40
1.0
 40
1.0
 40
1.0
 10
7497.748679057057
 20
4767.679157629274
 30
0.0
 10
7497.55099168889
 20
4768.920710830816
 30
0.0
 10
7497.18693269914
 20
4771.207142222302
 30
0.0
 10
7496.841188351865
 20
4774.355240817883
 30
0.0
 10
7496.656316586387
 20
4776.956781193832
 30
0.0
 10
7496.580961745762
 20
4779.077683358762
 30
0.0
 10
7496.543590345211
 20
4780.762820539189
 30
0.0
 10
7496.519942988758
 20
4782.18826739519
 30
0.0
 10
7496.500203568515
 20
4783.672263723491
 30
0.0
 10
7496.484825220764
 20
4785.525925306569
 30
0.0
 10
7496.478343721717
 20
4787.959610142202
 30
0.0
 10
7496.489693623324
 20
4791.414915753599
 30
0.0
 10
7496.537285101402
 20
4796.042531622549
 30
0.0
 10
7496.605887225524
 20
4800.339597234948
 30
0.0
 10
7496.657938865042
 20
4802.994868368678
 30
0.0
 10
7496.671142941868
 20
4803.668438007774
 30
0.0
  0
ARC
  5
218
330
1F
100
AcDbEntity
  8
0
  6
SLD-Plná
 62
     7
370
    25
100
AcDbCircle
 10
7491.9003388488
 20
4811.679157448
 30
0.0
 40
7.500000016297163
100
AcDbArc
 50
199.8642176408
 51
228.8626045876
  0
ARC
  5
219
330
1F
100
AcDbEntity
  8
0
  6
SLD-Plná
 62
     7
370
    25
100
AcDbCircle
 10
7496.17382585
 20
4803.6791576524
 30
0.0
 40
0.4999999768150348
100
AcDbArc
 50
0.8499052387
 51
90.0336403384
  0
LINE
  5
21A
330
1F
100
AcDbEntity
  8
0
  6
SLD-Plná
 62
     7
370
    25
100
AcDbLine
 10
7459.7622194856
 20
4811.1610652748
 30
0.0
 11
7460.7547170632
 21
4807.4025326016
 31
0.0
  0
SPLINE
  5
21B
330
1F
100
AcDbEntity
  8
0
  6
SLD-Plná
 62
     7
370
    25
100
AcDbSpline
210
0.0
220
0.0
230
1.0
 70
     8
 71
     3
 72
     9
 73
     5
 74
     0
 42
0.00000001
 43
0.00000001
 40
0.0
 40
0.0
 40
0.0
 40
0.0
 40
0.7001929802605551
 40
1.0
 40
1.0
 40
1.0
 40
1.0
 10
7483.300444419691
 20
4822.78042542094
 30
0.0
 10
7483.18334960478
 20
4822.90399996136
 30
0.0
 10
7483.016117401357
 20
4823.080486364257
 30
0.0
 10
7482.792785731885
 20
4823.176358824392
 30
0.0
 10
7482.725829329648
 20
4823.20510206094
 30
0.0
  0
LINE
  5
21C
330
1F
100
AcDbEntity
  8
0
  6
SLD-Plná
 62
     7
370
    25
100
AcDbLine
 10
7499.0738071341
 20
4766.6791576293
 30
0.0
 11
7499.0738071341
 21
4767.6791576293
 31
0.0
  0
LINE
  5
21D
330
1F
100
AcDbEntity
  8
0
  6
SLD-Plná
 62
     7
370
    25
100
AcDbLine
 10
7497.1896011411
 20
4800.1399369577
 30
0.0
 11
7497.5690929651
 21
4800.9837212376
 31
0.0
  0
SPLINE
  5
21E
330
1F
100
AcDbEntity
  8
0
  6
SLD-Plná
 62
     7
370
    25
100
AcDbSpline
210
0.0
220
0.0
230
1.0
 70
     8
 71
     3
 72
     9
 73
     5
 74
     0
 42
0.00000001
 43
0.00000001
 40
0.0
 40
0.0
 40
0.0
 40
0.0
 40
0.6519773460769706
 40
1.0
 40
1.0
 40
1.0
 40
1.0
 10
7499.073891733559
 20
4767.679157629274
 30
0.0
 10
7499.205473640999
 20
4774.76105025682
 30
0.0
 10
7499.407293394757
 20
4785.62322617468
 30
0.0
 10
7499.741891588675
 20
4796.489217526476
 30
0.0
 10
7499.858339340121
 20
4800.270828674233
 30
0.0
  0
LINE
  5
21F
330
1F
100
AcDbEntity
  8
0
  6
SLD-Plná
 62
     7
370
    25
100
AcDbLine
 10
7483.3004444197
 20
4821.219925983
 30
0.0
 11
7482.82279947
 21
4820.2202794441
 31
0.0
  0
LINE
  5
220
330
1F
100
AcDbEntity
  8
0
  6
SLD-Plná
 62
     7
370
    25
100
AcDbLine
 10
7500.120906261
 20
4830.0040760369
 30
0.0
 11
7493.3004444197
 21
4830.0040760369
 31
0.0
  0
ARC
  5
221
330
1F
100
AcDbEntity
  8
0
  6
SLD-Plná
 62
     7
370
    25
100
AcDbCircle
 10
7502.0314752037
 20
4827.7764294492
 30
0.0
 40
0.5000000000002174
100
AcDbArc
 50
335.9821698531
 51
0.0
  0
ARC
  5
222
330
1F
100
AcDbEntity
  8
0
  6
SLD-Plná
 62
     7
370
    25
100
AcDbCircle
 10
7502.0314752037
 20
4827.7764294492
 30
0.0
 40
0.5
100
AcDbArc
 50
0.0
 51
47.8631646921
  0
LINE
  5
223
330
1F
100
AcDbEntity
  8
0
  6
SLD-Plná
 62
     7
370
    25
100
AcDbLine
 10
7495.5591716837
 20
4812.0395214052
 30
0.0
 11
7502.4848317888
 21
4827.5728990286
 31
0.0
  0
SPLINE
  5
224
330
1F
100
AcDbEntity
  8
0
  6
SLD-Plná
 62
     7
370
    25
100
AcDbSpline
210
0.0
220
0.0
230
1.0
 70
     8
 71
     3
 72
     9
 73
     5
 74
     0
 42
0.00000001
 43
0.00000001
 40
0.0
 40
0.0
 40
0.0
 40
0.0
 40
0.145785956935833
 40
0.9999999999999999
 40
0.9999999999999999
 40
0.9999999999999999
 40
0.9999999999999999
 10
7502.366888304079
 20
4828.147201466552
 30
0.0
 10
7502.274094120497
 20
4828.231165531093
 30
0.0
 10
7501.637584366522
 20
4828.807106220483
 30
0.0
 10
7501.000313021062
 20
4829.383042691979
 30
0.0
 10
7500.455946888527
 20
4829.875015713844
 30
0.0
  0
ARC
  5
225
330
1F
100
AcDbEntity
  8
0
  6
SLD-Plná
 62
     7
370
    25
100
AcDbCircle
 10
7500.120906261
 20
4829.5040760369
 30
0.0
 40
0.5000000000009095
100
AcDbArc
 50
47.8920687688
 51
90.0
  0
ARC
  5
226
330
1F
100
AcDbEntity
  8
0
  6
SLD-Plná
 62
     7
370
    25
100
AcDbCircle
 10
7765.2050887006
 20
4608.1791576293
 30
0.0
 40
1.5
100
AcDbArc
 50
270.0
 51
0.0
  0
LINE
  5
227
330
1F
100
AcDbEntity
  8
0
  6
SLD-Plná
 62
     7
370
    25
100
AcDbLine
 10
7766.7050887006
 20
4608.1791576293
 30
0.0
 11
7766.7050887006
 21
4765.1791576293
 31
0.0
  0
ARC
  5
228
330
1F
100
AcDbEntity
  8
0
  6
SLD-Plná
 62
     7
370
    25
100
AcDbCircle
 10
7765.2050887006
 20
4765.1791576293
 30
0.0
 40
1.500000000000909
100
AcDbArc
 50
0.0
 51
90.0
  0
LINE
  5
229
330
1F
100
AcDbEntity
  8
0
  6
SLD-Plná
 62
     7
370
    25
100
AcDbLine
 10
7493.250191888
 20
4816.1791576293
 30
0.0
 11
7495.3004444197
 21
4816.1791576293
 31
0.0
  0
LINE
  5
22A
330
1F
100
AcDbEntity
  8
0
  6
SLD-Plná
 62
     7
370
    25
100
AcDbLine
 10
7483.4490933774
 20
4816.1791576293
 30
0.0
 11
7493.250191888
 21
4816.1791576293
 31
0.0
  0
LINE
  5
22B
330
1F
100
AcDbEntity
  8
0
  6
SLD-Plná
 62
     7
370
    25
100
AcDbLine
 10
7493.7805219739
 20
4804.1791576293
 30
0.0
 11
7496.0504444197
 21
4804.1791576293
 31
0.0
  0
LWPOLYLINE
  5
22C
330
1F
100
AcDbEntity
  8
0
  6
SLD-Plná
 62
     7
370
    25
100
AcDbPolyline
 90
       10
 70
   128
 43
0.0
 10
7536.6097180353
 20
4991.6701419782
 10
7537.686319699
 20
4991.7353710501
 10
7538.9285268053
 20
4991.9262205241
 10
7540.2442105361
 20
4992.2285359677
 10
7541.5357926477
 20
4992.6198960274
 10
7542.7074824037
 20
4993.071275318
 10
7543.6723809348
 20
4993.5491971024
 10
7544.3589261313
 20
4994.0182161083
 10
7544.7162000765
 20
4994.4435473415
 10
7544.7515142659
 20
4994.7133383283
  0
LWPOLYLINE
  5
22D
330
1F
100
AcDbEntity
  8
0
  6
SLD-Plná
 62
     7
370
    25
100
AcDbPolyline
 90
        4
 70
   128
 43
0.0
 10
7535.0869646267
 20
4992.1449769302
 10
7535.2545134607
 20
4991.9262205241
 10
7535.7785684347
 20
4991.7353710501
 10
7536.6097180353
 20
4991.6701419782
  0
LINE
  5
22E
330
1F
100
AcDbEntity
  8
0
  6
SLD-Plná
 62
     7
370
    25
100
AcDbLine
 10
7464.3429748653
 20
4767.6791576293
 30
0.0
 11
7487.2210264678
 21
4767.6791576293
 31
0.0
  0
LINE
  5
22F
330
1F
100
AcDbEntity
  8
0
  6
SLD-Plná
 62
     7
370
    25
100
AcDbLine
 10
7487.2210264678
 20
4767.6791576293
 30
0.0
 11
7487.2210264678
 21
4766.6791576293
 31
0.0
  0
LINE
  5
230
330
1F
100
AcDbEntity
  8
0
  6
SLD-Plná
 62
     7
370
    25
100
AcDbLine
 10
7493.8507897774
 20
4767.6791576293
 30
0.0
 11
7493.8507897774
 21
4766.6791576293
 31
0.0
  0
LINE
  5
231
330
1F
100
AcDbEntity
  8
0
  6
SLD-Plná
 62
     7
370
    25
100
AcDbLine
 10
7487.2210264678
 20
4767.6791576293
 30
0.0
 11
7493.8507897774
 21
4767.6791576293
 31
0.0
  0
LINE
  5
232
330
1F
100
AcDbEntity
  8
0
  6
SLD-Plná
 62
     7
370
    25
100
AcDbLine
 10
7493.8507897774
 20
4767.6791576293
 30
0.0
 11
7497.7487834358
 21
4767.6791576293
 31
0.0
  0
LWPOLYLINE
  5
233
330
1F
100
AcDbEntity
  8
0
  6
SLD-Plná
 62
     7
370
    25
100
AcDbPolyline
 90
        3
 70
   128
 43
0.0
 10
7457.1677582338
 20
4821.5806625798
 10
7457.5421837621
 20
4821.8711449151
 10
7457.6560745719
 20
4821.9413841593
  0
LWPOLYLINE
  5
234
330
1F
100
AcDbEntity
  8
0
  6
SLD-Plná
 62
     7
370
    25
100
AcDbPolyline
 90
       21
 70
   128
 43
0.0
 10
7483.4990057827
 20
4815.8571009916
 10
7483.4969090887
 20
4815.7511443919
 10
7483.2591126949
 20
4815.3883989986
 10
7482.6774372544
 20
4814.9841299895
 10
7481.767749357
 20
4814.5493647694
 10
7480.554862917
 20
4814.0959626
 10
7479.0718623149
 20
4813.6362911106
 10
7477.3591999412
 20
4813.1828889412
 10
7475.4635927607
 20
4812.748123721
 10
7473.4367479961
 20
4812.3438547119
 10
7471.3339526887
 20
4811.9811093186
 10
7469.2125656131
 20
4811.6697822898
 10
7467.1304526786
 20
4811.4183658154
 10
7465.1444084984
 20
4811.2337178812
 10
7463.3086071805
 20
4811.1208752017
 10
7461.6731245993
 20
4811.082915831
 10
7460.2825724562
 20
4811.1208752017
 10
7459.1748813888
 20
4811.2337178812
 10
7458.3802663219
 20
4811.4183658154
 10
7457.920402283
 20
4811.6697822898
 10
7457.8057364704
 20
4811.8751527189
  0
LINE
  5
235
330
1F
100
AcDbEntity
  8
0
  6
SLD-Plná
 62
     7
370
    25
100
AcDbLine
 10
7487.6499776299
 20
4768.3875493083
 30
0.0
 11
7487.221043184
 21
4767.6791842601
 31
0.0
  0
SPLINE
  5
236
330
1F
100
AcDbEntity
  8
0
  6
SLD-Plná
 62
     7
370
    25
100
AcDbSpline
210
0.0
220
0.0
230
1.0
 70
     8
 71
     3
 72
    20
 73
    16
 74
     0
 42
0.00000001
 43
0.00000001
 40
0.0
 40
0.0
 40
0.0
 40
0.0
 40
0.0783938570876149
 40
0.1577510973837893
 40
0.2381013429282655
 40
0.3486517196966945
 40
0.4682538720175288
 40
0.5315130005525999
 40
0.5970568800731867
 40
0.6648901837971486
 40
0.7350171123933579
 40
0.8019364627992044
 40
0.8853977700288153
 40
0.9853937126910057
 40
1.0
 40
1.0
 40
1.0
 40
1.0
 10
7471.632688273789
 20
4767.677932544448
 30
0.0
 10
7472.034182698731
 20
4767.678005605737
 30
0.0
 10
7472.84210551923
 20
4767.678152626168
 30
0.0
 10
7474.125034000056
 20
4767.678795793689
 30
0.0
 10
7475.615402437369
 20
4767.679546046616
 30
0.0
 10
7477.362384985006
 20
4767.677611619964
 30
0.0
 10
7479.01652700082
 20
4767.676311080683
 30
0.0
 10
7480.393842330715
 20
4767.676692739488
 30
0.0
 10
7481.465644286501
 20
4767.677572252604
 30
0.0
 10
7482.547500850979
 20
4767.678682551988
 30
0.0
 10
7483.600694926635
 20
4767.679435590461
 30
0.0
 10
7484.687778625514
 20
4767.67846555494
 30
0.0
 10
7485.854866753937
 20
4767.678497050287
 30
0.0
 10
7486.705776445205
 20
4767.679119298132
 30
0.0
 10
7487.164179755893
 20
4767.679177326947
 30
0.0
 10
7487.222604190225
 20
4767.679184722838
 30
0.0
  0
LINE
  5
237
330
1F
100
AcDbEntity
  8
0
  6
SLD-Plná
 62
     7
370
    25
100
AcDbLine
 10
7471.6263200069
 20
4767.747516949
 30
0.0
 11
7471.6325573878
 21
4767.6793566329
 31
0.0
  0
LINE
  5
238
330
1F
100
AcDbEntity
  8
0
  6
SLD-Plná
 62
     7
370
    25
100
AcDbLine
 10
7471.6263200069
 20
4767.747516949
 30
0.0
 11
7471.5308146121
 21
4767.6791576096
 31
0.0
  0
SPLINE
  5
239
330
1F
100
AcDbEntity
  8
0
  6
SLD-Plná
 62
     7
370
    25
100
AcDbSpline
210
0.0
220
0.0
230
1.0
 70
     8
 71
     3
 72
    11
 73
     7
 74
     0
 42
0.00000001
 43
0.00000001
 40
0.0
 40
0.0
 40
0.0
 40
0.0
 40
0.0107105652240131
 40
0.4995198694553565
 40
0.9883161184895244
 40
1.0
 40
1.0
 40
1.0
 40
1.0
 10
7465.752839089787
 20
4767.677936541947
 30
0.0
 10
7465.766202582536
 20
4767.677936328682
 30
0.0
 10
7466.389449816795
 20
4767.677926382438
 30
0.0
 10
7468.024777278604
 20
4767.680364857756
 30
0.0
 10
7470.275624787721
 20
4767.677919107838
 30
0.0
 10
7471.509238283333
 20
4767.677929215608
 30
0.0
 10
7471.538037416471
 20
4767.677929451578
 30
0.0
  0
LINE
  5
23A
330
1F
100
AcDbEntity
  8
0
  6
SLD-Plná
 62
     7
370
    25
100
AcDbLine
 10
7465.7526121296
 20
4767.6791576096
 30
0.0
 11
7465.6891981589
 21
4767.747517503
 31
0.0
  0
LINE
  5
23B
330
1F
100
AcDbEntity
  8
0
  6
SLD-Plná
 62
     7
370
    25
100
AcDbLine
 10
7465.6891981589
 20
4767.747517503
 30
0.0
 11
7465.7018917419
 21
4767.6793586335
 31
0.0
  0
SPLINE
  5
23C
330
1F
100
AcDbEntity
  8
0
  6
SLD-Plná
 62
     7
370
    25
100
AcDbSpline
210
0.0
220
0.0
230
1.0
 70
     8
 71
     3
 72
    10
 73
     6
 74
     0
 42
0.00000001
 43
0.00000001
 40
0.0
 40
0.0
 40
0.0
 40
0.0
 40
0.3999825215186276
 40
0.9972587356042482
 40
0.9999999999999999
 40
0.9999999999999999
 40
0.9999999999999999
 40
0.9999999999999999
 10
7464.357681095655
 20
4767.67761159346
 30
0.0
 10
7464.361343841265
 20
4767.677868902259
 30
0.0
 10
7464.370476002945
 20
4767.678510438911
 30
0.0
 10
7464.376794893273
 20
4767.679282385569
 30
0.0
 10
7464.500446979386
 20
4767.679156491238
 30
0.0
 10
7464.501011901365
 20
4767.679155916072
 30
0.0
  0
LWPOLYLINE
  5
23D
330
1F
100
AcDbEntity
  8
0
  6
SLD-Plná
 62
     7
370
    25
100
AcDbPolyline
 90
       24
 70
   128
 43
0.0
 10
7461.1463580012
 20
4806.6436712342
 10
7460.2590075638
 20
4806.2978192249
 10
7459.356326761
 20
4805.8581559137
 10
7458.7849591497
 20
4805.4498730175
 10
7458.5602256618
 20
4805.0839184347
 10
7458.6881524117
 20
4804.7701050513
 10
7459.1653091085
 20
4804.5168476135
 10
7459.9789010381
 20
4804.3309370909
 10
7461.1071121465
 20
4804.2173585794
 10
7462.5196900266
 20
4804.1791576293
 10
7464.1787571208
 20
4804.2173585794
 10
7466.0398263887
 20
4804.3309370909
 10
7468.052994204
 20
4804.5168476135
 10
7470.1642784956
 20
4804.7701050513
 10
7472.3170662488
 20
4805.0839184347
 10
7474.4536315546
 20
4805.4498730175
 10
7476.5166835007
 20
4805.8581559137
 10
7478.4509023984
 20
4806.2978192249
 10
7480.2044231513
 20
4806.7570736031
 10
7481.7302259922
 20
4807.2236043756
 10
7482.9873972938
 20
4807.684901757
 10
7483.9422266467
 20
4808.1285962926
 10
7484.5691107876
 20
4808.542790539
 10
7484.5691107876
 20
4808.542790539
  0
SPLINE
  5
23E
330
1F
100
AcDbEntity
  8
0
  6
SLD-Plná
 62
     7
370
    25
100
AcDbSpline
210
0.0
220
0.0
230
1.0
 70
     8
 71
     3
 72
    12
 73
     8
 74
     0
 42
0.00000001
 43
0.00000001
 40
0.0
 40
0.0
 40
0.0
 40
0.0
 40
0.2427914550828742
 40
0.4880681846577983
 40
0.7019438068197649
 40
0.9577199628241756
 40
1.0
 40
1.0
 40
1.0
 40
1.0
 10
7484.554942758838
 20
4808.383124729836
 30
0.0
 10
7484.553253788148
 20
4808.401552721442
 30
0.0
 10
7484.549858558037
 20
4808.43859733822
 30
0.0
 10
7484.550260496224
 20
4808.488110830446
 30
0.0
 10
7484.556377646261
 20
4808.524288017374
 30
0.0
 10
7484.563731878992
 20
4808.53778630446
 30
0.0
 10
7484.56844256471
 20
4808.542168861987
 30
0.0
 10
7484.569110787587
 20
4808.542790539039
 30
0.0
  0
SPLINE
  5
23F
330
1F
100
AcDbEntity
  8
0
  6
SLD-Plná
 62
     7
370
    25
100
AcDbSpline
210
0.0
220
0.0
230
1.0
 70
     8
 71
     3
 72
    18
 73
    14
 74
     0
 42
0.00000001
 43
0.00000001
 40
0.0
 40
0.0
 40
0.0
 40
0.0
 40
0.1043946742900806
 40
0.1887322298944983
 40
0.272896699499495
 40
0.3081643621458517
 40
0.3432317557001282
 40
0.4670522449582007
 40
0.5915891046517904
 40
0.8364650800384115
 40
0.9590646011758761
 40
0.9897295041522854
 40
1.0
 40
1.0
 40
1.0
 40
1.0
 10
7484.554942758838
 20
4808.383124729836
 30
0.0
 10
7484.692141867024
 20
4806.981286916696
 30
0.0
 10
7484.940180321126
 20
4804.446943299808
 30
0.0
 10
7485.140335883334
 20
4800.789726016918
 30
0.0
 10
7485.096037100776
 20
4798.092616222886
 30
0.0
 10
7484.896976301843
 20
4796.09323379332
 30
0.0
 10
7484.840781472387
 20
4793.477104405865
 30
0.0
 10
7485.298162458049
 20
4789.651252820946
 30
0.0
 10
7486.29079421084
 20
4783.158118644827
 30
0.0
 10
7487.224091217407
 20
4776.628333898323
 30
0.0
 10
7487.749169099156
 20
4771.285118677421
 30
0.0
 10
7487.74549807335
 20
4769.062534098958
 30
0.0
 10
7487.669136406878
 20
4768.522932715528
 30
0.0
 10
7487.649977629854
 20
4768.387549308328
 30
0.0
  0
LWPOLYLINE
  5
240
330
1F
100
AcDbEntity
  8
0
  6
SLD-Plná
 62
     7
370
    25
100
AcDbPolyline
 90
        7
 70
   128
 43
0.0
 10
7484.5691107876
 20
4808.542790539
 10
7484.8540123968
 20
4808.9259021999
 10
7484.767078203
 20
4809.2553271999
 10
7484.3107679082
 20
4809.5217448401
 10
7483.4979922838
 20
4809.7176171422
 10
7482.3517478744
 20
4809.8374021262
 10
7481.8986139842
 20
4809.8598602237
  0
LWPOLYLINE
  5
241
330
1F
100
AcDbEntity
  8
0
  6
SLD-Plná
 62
     7
370
    25
100
AcDbPolyline
 90
       14
 70
   128
 43
0.0
 10
7464.4596098331
 20
4804.7804559871
 10
7465.9473674546
 20
4804.8187320867
 10
7467.631435386
 20
4804.9322569389
 10
7469.4544647136
 20
4805.117164591
 10
7471.3543743601
 20
4805.3671582346
 10
7473.2664651813
 20
4805.6737246361
 10
7475.1256232175
 20
4806.0264240444
 10
7476.8685370716
 20
4806.4132457041
 10
7478.4358539027
 20
4806.8210168675
 10
7479.774200616
 20
4807.2358513767
 10
7480.8380014192
 20
4807.6436225401
 10
7481.5910298519
 20
4808.0304441998
 10
7482.0076424339
 20
4808.383143608
 10
7482.0882061735
 20
4808.6365286168
  0
LWPOLYLINE
  5
242
330
1F
100
AcDbEntity
  8
0
  6
SLD-Plná
 62
     7
370
    25
100
AcDbPolyline
 90
        6
 70
   128
 43
0.0
 10
7461.3359501905
 20
4805.4203396273
 10
7461.3505044405
 20
4805.3671582346
 10
7461.6373459173
 20
4805.117164591
 10
7462.267270318
 20
4804.9322569389
 10
7463.2188263228
 20
4804.8187320867
 10
7464.4596098331
 20
4804.7804559871
  0
LWPOLYLINE
  5
243
330
1F
100
AcDbEntity
  8
0
  6
SLD-Plná
 62
     7
370
    25
100
AcDbPolyline
 90
        5
 70
   128
 43
0.0
 10
7461.1362458663
 20
4807.6564426001
 10
7461.1319802545
 20
4807.6511586464
 10
7461.0350172418
 20
4807.4603316688
 10
7461.0634428919
 20
4807.2878970442
 10
7461.2169136389
 20
4807.135938901
  0
LINE
  5
244
330
1F
100
AcDbEntity
  8
0
  6
SLD-Plná
 62
     7
370
    25
100
AcDbLine
 10
7461.2169136389
 20
4807.135938901
 30
0.0
 11
7460.6018766958
 21
4811.1044258664
 31
0.0
  0
LINE
  5
245
330
1F
100
AcDbEntity
  8
0
  6
SLD-Plná
 62
     7
370
    25
100
AcDbLine
 10
7461.043379434
 20
4811.0899339048
 30
0.0
 11
7461.6852699998
 21
4806.948175638
 31
0.0
  0
ARC
  5
246
330
1F
100
AcDbEntity
  8
0
  6
SLD-Plná
 62
     7
370
    25
100
AcDbCircle
 10
7464.84754766
 20
4829.0902853976
 30
0.0
 40
22.36678395755851
100
AcDbArc
 50
261.8721314616
 51
278.1278685384
  0
LINE
  5
247
330
1F
100
AcDbEntity
  8
0
  6
SLD-Plná
 62
     7
370
    25
100
AcDbLine
 10
7468.0098253202
 20
4806.948175638
 30
0.0
 11
7467.3139507644
 21
4811.4382621846
 31
0.0
  0
LINE
  5
248
330
1F
100
AcDbEntity
  8
0
  6
SLD-Plná
 62
     7
370
    25
100
AcDbLine
 10
7468.9915943737
 20
4811.6405003765
 30
0.0
 11
7469.6897122569
 21
4807.135938901
 31
0.0
  0
ARC
  5
249
330
1F
100
AcDbEntity
  8
0
  6
SLD-Plná
 62
     7
370
    25
100
AcDbCircle
 10
7462.5706445677
 20
4866.355664936
 30
0.0
 40
59.64609858506877
100
AcDbArc
 50
276.8548866162
 51
285.19304239
  0
LINE
  5
24A
330
1F
100
AcDbEntity
  8
0
  6
SLD-Plná
 62
     7
370
    25
100
AcDbLine
 10
7478.2022164189
 20
4808.7942973543
 30
0.0
 11
7477.516050661
 21
4813.2217384969
 31
0.0
  0
LINE
  5
24B
330
1F
100
AcDbEntity
  8
0
  6
SLD-Plná
 62
     7
370
    25
100
AcDbLine
 10
7478.7361610533
 20
4813.5419042998
 30
0.0
 11
7479.4137469947
 21
4809.1698238803
 31
0.0
  0
LWPOLYLINE
  5
24C
330
1F
100
AcDbEntity
  8
0
  6
SLD-Plná
 62
     7
370
    25
100
AcDbPolyline
 90
        9
 70
   128
 43
0.0
 10
7479.4137469947
 20
4809.1698238803
 10
7480.0906379112
 20
4809.4145926835
 10
7480.6626020306
 20
4809.6541336947
 10
7481.1227263174
 20
4809.8855517051
 10
7481.4654494869
 20
4810.1060496848
 10
7481.6866292207
 20
4810.3129625882
 10
7481.7835922335
 20
4810.5037895658
 10
7481.7551665833
 20
4810.6762241904
 10
7481.6016958363
 20
4810.8281823335
  0
LINE
  5
24D
330
1F
100
AcDbEntity
  8
0
  6
SLD-Plná
 62
     7
370
    25
100
AcDbLine
 10
7481.6016958363
 20
4810.8281823335
 30
0.0
 11
7481.0673266658
 21
4814.2761655998
 31
0.0
  0
LINE
  5
24E
330
1F
100
AcDbEntity
  8
0
  6
SLD-Plná
 62
     7
370
    25
100
AcDbLine
 10
7469.6897122569
 20
4807.135938901
 30
0.0
 11
7478.2022164189
 21
4808.7942973543
 31
0.0
  0
LINE
  5
24F
330
1F
100
AcDbEntity
  8
0
  6
SLD-Plná
 62
     7
370
    25
100
AcDbLine
 10
7496.5768600294
 20
4803.6702475722
 30
0.0
 11
7496.5606081513
 21
4803.6702316094
 31
0.0
  0
SPLINE
  5
250
330
1F
100
AcDbEntity
  8
0
  6
SLD-Plná
 62
     7
370
    25
100
AcDbSpline
210
0.0
220
0.0
230
1.0
 70
    24
 71
     3
 72
    11
 73
     7
 74
     0
 42
0.00000001
 43
0.00000001
 40
0.0
 40
0.0
 40
0.0
 40
0.0
 40
0.3768981074053371
 40
0.5890604957432836
 40
0.807347051477044
 40
1.0
 40
1.0
 40
1.0
 40
1.0
 10
7493.850789780612
 20
4767.679157629274
 30
0.0
 10
7494.70296682046
 20
4767.679157629274
 30
0.0
 10
7496.034848885376
 20
4767.679157629274
 30
0.0
 10
7497.115038909863
 20
4767.679157629274
 30
0.0
 10
7497.658510566669
 20
4767.679157629274
 30
0.0
 10
7497.709191149377
 20
4767.679157629274
 30
0.0
 10
7497.73295076263
 20
4767.679157629274
 30
0.0
  0
SPLINE
  5
251
330
1F
100
AcDbEntity
  8
0
  6
SLD-Plná
 62
     7
370
    25
100
AcDbSpline
210
0.0
220
0.0
230
1.0
 70
     8
 71
     3
 72
    12
 73
     8
 74
     0
 42
0.00000001
 43
0.00000001
 40
0.0
 40
0.0
 40
0.0
 40
0.0
 40
0.1900943724388595
 40
0.3854791070104254
 40
0.653235518939504
 40
0.9282871170579183
 40
1.0
 40
1.0
 40
1.0
 40
1.0
 10
7491.310939700546
 20
4803.709964317868
 30
0.0
 10
7490.870054489433
 20
4803.756514995486
 30
0.0
 10
7489.97601414887
 20
4803.850911864834
 30
0.0
 10
7488.453483868259
 20
4804.583993293121
 30
0.0
 10
7486.76750519508
 20
4805.867350740675
 30
0.0
 10
7485.428210560406
 20
4807.29674577346
 30
0.0
 10
7484.704591358782
 20
4808.196956077404
 30
0.0
 10
7484.554942758838
 20
4808.383124729836
 30
0.0
  0
SPLINE
  5
252
330
1F
100
AcDbEntity
  8
0
  6
SLD-Plná
 62
     7
370
    25
100
AcDbSpline
210
0.0
220
0.0
230
1.0
 70
     8
 71
     3
 72
    10
 73
     6
 74
     0
 42
0.00000001
 43
0.00000001
 40
0.0
 40
0.0
 40
0.0
 40
0.0
 40
0.1324584287773581
 40
0.6622924464969028
 40
0.9999999999999999
 40
0.9999999999999999
 40
0.9999999999999999
 40
0.9999999999999999
 10
7495.386840217775
 20
4803.668950193069
 30
0.0
 10
7495.207307216569
 20
4803.67113304664
 30
0.0
 10
7494.309641800386
 20
4803.682047319483
 30
0.0
 10
7492.951502745896
 20
4803.69638461811
 30
0.0
 10
7491.770621040318
 20
4803.706159322628
 30
0.0
 10
7491.310939700546
 20
4803.709964317868
 30
0.0
  0
LINE
  5
253
330
1F
100
AcDbEntity
  8
0
  6
SLD-Plná
 62
     7
370
    25
100
AcDbLine
 10
7461.6852699998
 20
4806.948175638
 30
0.0
 11
7468.0098253202
 21
4806.948175638
 31
0.0
  0
LINE
  5
254
330
1F
100
AcDbEntity
  8
0
  6
SLD-Plná
 62
     7
370
    25
100
AcDbLine
 10
7479.4137469947
 20
4809.1698238803
 30
0.0
 11
7481.6016958363
 21
4810.8281823335
 31
0.0
  0
LINE
  5
255
330
1F
100
AcDbEntity
  8
0
  6
SLD-Plná
 62
     7
370
    25
100
AcDbLine
 10
7471.5343437355
 20
4767.6791576293
 30
0.0
 11
7471.6325598656
 21
4767.6791576293
 31
0.0
  0
SPLINE
  5
256
330
1F
100
AcDbEntity
  8
0
  6
SLD-Plná
 62
     7
370
    25
100
AcDbSpline
210
0.0
220
0.0
230
1.0
 70
     8
 71
     3
 72
    11
 73
     7
 74
     0
 42
0.00000001
 43
0.00000001
 40
0.0
 40
0.0
 40
0.0
 40
0.0
 40
0.3003625479732404
 40
0.6070071708547338
 40
0.8011309396447021
 40
0.9999999999999999
 40
0.9999999999999999
 40
0.9999999999999999
 40
0.9999999999999999
 10
7484.569110787587
 20
4808.542790539039
 30
0.0
 10
7485.177727366005
 20
4807.843091630328
 30
0.0
 10
7486.407689722811
 20
4806.42905962836
 30
0.0
 10
7488.106612261176
 20
4805.080196406843
 30
0.0
 10
7489.615788512509
 20
4804.315360324431
 30
0.0
 10
7490.462652963632
 20
4804.224922532344
 30
0.0
 10
7490.891198028969
 20
4804.179157629274
 30
0.0
  0
ARC
  5
257
330
1F
100
AcDbEntity
  8
0
  6
SLD-Plná
 62
     7
370
    25
100
AcDbCircle
 10
7490.8512957995
 20
4803.7211132786
 30
0.0
 40
0.4597790938282431
100
AcDbArc
 50
358.6105261849
 51
85.0212851575
  0
LINE
  5
258
330
1F
100
AcDbEntity
  8
0
  6
SLD-Plná
 62
     7
370
    25
100
AcDbLine
 10
7465.7019094007
 20
4767.6791576293
 30
0.0
 11
7465.7526108324
 21
4767.6791576293
 31
0.0
  0
LINE
  5
259
330
1F
100
AcDbEntity
  8
0
  6
SLD-Plná
 62
     7
370
    25
100
AcDbLine
 10
7490.891198029
 20
4804.1791576293
 30
0.0
 11
7494.9656412463
 21
4804.1791576293
 31
0.0
  0
ARC
  5
25A
330
1F
100
AcDbEntity
  8
0
  6
SLD-Plná
 62
     7
370
    25
100
AcDbCircle
 10
7494.9214272055
 20
4803.7136939915
 30
0.0
 40
0.4675588513843879
100
AcDbArc
 50
354.5085845299
 51
84.5737980524
  0
LINE
  5
25B
330
1F
100
AcDbEntity
  8
0
  6
SLD-Plná
 62
     7
370
    25
100
AcDbLine
 10
7494.9656412463
 20
4804.1791576293
 30
0.0
 11
7495.8885884226
 21
4804.1791576293
 31
0.0
  0
ARC
  5
25C
330
1F
100
AcDbEntity
  8
0
  6
SLD-Plná
 62
     7
370
    25
100
AcDbCircle
 10
7461.7489509583
 20
4807.6864651284
 30
0.0
 40
1.016973411296165
100
AcDbArc
 50
135.6718308877
 51
230.8574903664
  0
LWPOLYLINE
  5
25D
330
1F
100
AcDbEntity
  8
0
  6
SLD-Plná
 62
     7
370
    25
100
AcDbPolyline
 90
        3
 70
   128
 43
0.0
 10
7482.5487809897
 20
4823.2968909781
 10
7482.4339788965
 20
4823.3549690288
 10
7482.3297704273
 20
4823.4015181511
  0
LINE
  5
25E
330
1F
100
AcDbEntity
  8
0
  6
SLD-Plná
 62
     7
370
    25
100
AcDbLine
 10
7499.0738071341
 20
4767.6791576293
 30
0.0
 11
7498.2463762838
 21
4767.6791576293
 31
0.0
  0
LWPOLYLINE
  5
25F
330
1F
100
AcDbEntity
  8
0
  6
SLD-Plná
 62
     7
370
    25
100
AcDbPolyline
 90
        6
 70
   128
 43
0.0
 10
7496.6295420175
 20
4800.3283450842
 10
7497.2351470697
 20
4800.591111138
 10
7497.5962969525
 20
4801.0517739022
 10
7497.6119090336
 20
4801.6627974604
 10
7497.2810023485
 20
4802.3857889552
 10
7496.766741081
 20
4803.0286404103
  0
LINE
  5
260
330
1F
100
AcDbEntity
  8
0
  6
SLD-Plná
 62
     7
370
    25
100
AcDbLine
 10
7496.2277618123
 20
4805.5542314689
 30
0.0
 11
7495.9554114396
 21
4805.6996853104
 31
0.0
  0
LINE
  5
261
330
1F
100
AcDbEntity
  8
0
  6
SLD-Plná
 62
     7
370
    25
100
AcDbLine
 10
7496.9619676107
 20
4803.4627184755
 30
0.0
 11
7496.2277618123
 21
4805.5542314689
 31
0.0
  0
LINE
  5
262
330
1F
100
AcDbEntity
  8
0
  6
SLD-Plná
 62
     7
370
    25
100
AcDbLine
 10
7496.6671735348
 20
4803.4627184755
 30
0.0
 11
7496.9619676107
 21
4803.4627184755
 31
0.0
  0
LINE
  5
263
330
1F
100
AcDbEntity
  8
0
  6
SLD-Plná
 62
     7
370
    25
100
AcDbLine
 10
7496.653959315
 20
4802.7778748465
 30
0.0
 11
7496.9619676107
 21
4803.4627184755
 31
0.0
  0
SPLINE
  5
264
330
1F
100
AcDbEntity
  8
0
  6
SLD-Plná
 62
     7
370
    25
100
AcDbSpline
210
0.0
220
0.0
230
1.0
 70
     8
 71
     3
 72
    15
 73
    11
 74
     0
 42
0.00000001
 43
0.00000001
 40
0.0
 40
0.0
 40
0.0
 40
0.0
 40
0.0210303876235244
 40
0.177201421797724
 40
0.331610473744673
 40
0.4913679344336634
 40
0.6606856028125483
 40
0.8256440291421795
 40
0.9919425888367733
 40
1.0
 40
1.0
 40
1.0
 40
1.0
 10
7496.586487341304
 20
4798.763430071307
 30
0.0
 10
7496.684894802301
 20
4798.747040633696
 30
0.0
 10
7497.514073147293
 20
4798.608943718931
 30
0.0
 10
7498.632637038369
 20
4798.817895474694
 30
0.0
 10
7499.687353508355
 20
4799.393784339107
 30
0.0
 10
7499.942647605917
 20
4800.422001315988
 30
0.0
 10
7499.403196938719
 20
4801.74860945614
 30
0.0
 10
7498.063596360895
 20
4803.240830569503
 30
0.0
 10
7497.006085767732
 20
4804.25300356727
 30
0.0
 10
7496.517139826562
 20
4804.770346999353
 30
0.0
 10
7496.494544451909
 20
4804.794254690752
 30
0.0
  0
LINE
  5
265
330
1F
100
AcDbEntity
  8
0
  6
SLD-Plná
 62
     7
370
    25
100
AcDbLine
 10
7498.0829507626
 20
4767.6791576293
 30
0.0
 11
7499.0738071341
 21
4767.6791576293
 31
0.0
  0
SPLINE
  5
266
330
1F
100
AcDbEntity
  8
0
  6
SLD-Plná
 62
     7
370
    25
100
AcDbSpline
210
0.0
220
0.0
230
1.0
 70
     8
 71
     3
 72
    13
 73
     9
 74
     0
 42
0.00000001
 43
0.00000001
 40
0.0
 40
0.0
 40
0.0
 40
0.0
 40
0.1604627405670391
 40
0.3228480729527622
 40
0.4864578984667975
 40
0.6525042841732319
 40
0.9877477415280683
 40
0.9999999999999999
 40
0.9999999999999999
 40
0.9999999999999999
 40
0.9999999999999999
 10
7498.552173171611
 20
4779.710948024464
 30
0.0
 10
7498.529618719862
 20
4779.414906760037
 30
0.0
 10
7498.484239579147
 20
4778.819277198952
 30
0.0
 10
7498.318976883122
 20
4777.958196655215
 30
0.0
 10
7498.080160032197
 20
4777.159684111005
 30
0.0
 10
7497.63257615922
 20
4776.260683295675
 30
0.0
 10
7497.210619379929
 20
4775.60990774638
 30
0.0
 10
7496.791235813632
 20
4775.490702274814
 30
0.0
 10
7496.776448880673
 20
4775.486499240986
 30
0.0
  0
SPLINE
  5
267
330
1F
100
AcDbEntity
  8
0
  6
SLD-Plná
 62
     7
370
    25
100
AcDbSpline
210
0.0
220
0.0
230
1.0
 70
     8
 71
     3
 72
    13
 73
     9
 74
     0
 42
0.00000001
 43
0.00000001
 40
0.0
 40
0.0
 40
0.0
 40
0.0
 40
0.070009659734548
 40
0.2084012384527762
 40
0.4787363428116063
 40
0.7414865941373541
 40
0.8711865884287396
 40
0.9999999999999999
 40
0.9999999999999999
 40
0.9999999999999999
 40
0.9999999999999999
 10
7496.499020968827
 20
4784.024143776393
 30
0.0
 10
7496.608417653835
 20
4784.014587131854
 30
0.0
 10
7496.934064210679
 20
4783.986139392428
 30
0.0
 10
7497.5481020985
 20
4783.668183556139
 30
0.0
 10
7498.183653819118
 20
4782.895714065068
 30
0.0
 10
7498.485658421016
 20
4781.699249547372
 30
0.0
 10
7498.577295467103
 20
4780.59272376997
 30
0.0
 10
7498.560528101978
 20
4780.00420048442
 30
0.0
 10
7498.552173171611
 20
4779.710948024464
 30
0.0
  0
LWPOLYLINE
  5
268
330
1F
100
AcDbEntity
  8
0
  6
SLD-Plná
 62
     7
370
    25
100
AcDbPolyline
 90
        6
 70
   128
 43
0.0
 10
7497.574919559
 20
4801.7942170855
 10
7497.826824812
 20
4801.2786605551
 10
7497.9118360365
 20
4800.6289684933
 10
7497.673141483
 20
4800.1083327465
 10
7497.1236092367
 20
4799.7448209227
 10
7496.8987176621
 20
4799.6685956221
  0
ARC
  5
269
330
1F
100
AcDbEntity
  8
0
  6
SLD-Plná
 62
     7
370
    25
100
AcDbCircle
 10
7501.7611048667
 20
4827.7722866779
 30
0.0
 40
0.6270667494017291
100
AcDbArc
 50
335.0817744808
 51
42.7974921723
  0
SPLINE
  5
26A
330
1F
100
AcDbEntity
  8
0
  6
SLD-Plná
 62
     7
370
    25
100
AcDbSpline
210
0.0
220
0.0
230
1.0
 70
     8
 71
     3
 72
    10
 73
     6
 74
     0
 42
0.00000001
 43
0.00000001
 40
0.0
 40
0.0
 40
0.0
 40
0.0
 40
0.5000680325356542
 40
0.899259468780018
 40
1.0
 40
1.0
 40
1.0
 40
1.0
 10
7502.221221115729
 20
4828.198321589168
 30
0.0
 10
7501.902866206766
 20
4828.486301472418
 30
0.0
 10
7501.330376769945
 20
4829.004168282495
 30
0.0
 10
7500.693368172029
 20
4829.580051012555
 30
0.0
 10
7500.374838585984
 20
4829.867953403494
 30
0.0
 10
7500.31065217304
 20
4829.925968176884
 30
0.0
  0
LWPOLYLINE
  5
26B
330
1F
100
AcDbEntity
  8
0
  6
SLD-Plná
 62
     7
370
    25
100
AcDbPolyline
 90
        3
 70
   128
 43
0.0
 10
7496.6544294306
 20
4799.6288771368
 10
7497.1075000526
 20
4799.9958749868
 10
7497.1896011411
 20
4800.1399369577
  0
SPLINE
  5
26C
330
1F
100
AcDbEntity
  8
0
  6
SLD-Plná
 62
     7
370
    25
100
AcDbSpline
210
0.0
220
0.0
230
1.0
 70
     8
 71
     3
 72
    12
 73
     8
 74
     0
 42
0.00000001
 43
0.00000001
 40
0.0
 40
0.0
 40
0.0
 40
0.0
 40
0.1596858252587909
 40
0.3201614948560312
 40
0.6412327257931226
 40
0.9619987842349296
 40
0.9999999999999999
 40
0.9999999999999999
 40
0.9999999999999999
 40
0.9999999999999999
 10
7497.498568642673
 20
4779.757254102364
 30
0.0
 10
7497.508665672286
 20
4780.019992722348
 30
0.0
 10
7497.52890967384
 20
4780.546769530457
 30
0.0
 10
7497.476290106891
 20
4781.537419558696
 30
0.0
 10
7497.250463680158
 20
4782.583105161045
 30
0.0
 10
7496.872425653636
 20
4783.25273473204
 30
0.0
 10
7496.539522497742
 20
4783.414743888538
 30
0.0
 10
7496.504260851641
 20
4783.431904163052
 30
0.0
  0
SPLINE
  5
26D
330
1F
100
AcDbEntity
  8
0
  6
SLD-Plná
 62
     7
370
    25
100
AcDbSpline
210
0.0
220
0.0
230
1.0
 70
     8
 71
     3
 72
    12
 73
     8
 74
     0
 42
0.00000001
 43
0.00000001
 40
0.0
 40
0.0
 40
0.0
 40
0.0
 40
0.0803899174902541
 40
0.3108593836795934
 40
0.5404882431628715
 40
0.7707223797284691
 40
1.0
 40
1.0
 40
1.0
 40
1.0
 10
7496.689407062396
 20
4776.728511679724
 30
0.0
 10
7496.735351633207
 20
4776.777807596925
 30
0.0
 10
7496.913014472176
 20
4776.968429741061
 30
0.0
 10
7497.094806148531
 20
4777.496292555392
 30
0.0
 10
7497.301121428041
 20
4778.189079547558
 30
0.0
 10
7497.435293834885
 20
4778.963112459551
 30
0.0
 10
7497.477506329818
 20
4779.492907827474
 30
0.0
 10
7497.498568642673
 20
4779.757254102364
 30
0.0
  0
LINE
  5
26E
330
1F
100
AcDbEntity
  8
0
  6
SLD-Plná
 62
     7
370
    25
100
AcDbLine
 10
7591.7050887006
 20
4606.6791576293
 30
0.0
 11
7419.7050887006
 21
4606.6791576293
 31
0.0
  0
LINE
  5
26F
330
1F
100
AcDbEntity
  8
0
  6
SLD-Plná
 62
     7
370
    25
100
AcDbLine
 10
7419.7050887006
 20
4606.6791576293
 30
0.0
 11
7421.2050887006
 21
4608.1791576293
 31
0.0
  0
LINE
  5
270
330
1F
100
AcDbEntity
  8
0
  6
SLD-Plná
 62
     7
370
    25
100
AcDbLine
 10
7421.2050887006
 20
4608.1791576293
 30
0.0
 11
7591.7050887006
 21
4608.1791576293
 31
0.0
  0
LINE
  5
271
330
1F
100
AcDbEntity
  8
0
  6
SLD-Plná
 62
     7
370
    25
100
AcDbLine
 10
7591.7050887006
 20
4606.6791576293
 30
0.0
 11
7591.7050887006
 21
4608.1791576293
 31
0.0
  0
LINE
  5
272
330
1F
100
AcDbEntity
  8
0
  6
SLD-Plná
 62
     7
370
    25
100
AcDbLine
 10
7421.2050887006
 20
4765.1791576293
 30
0.0
 11
7421.2050887006
 21
4608.1791576293
 31
0.0
  0
LINE
  5
273
330
1F
100
AcDbEntity
  8
0
  6
SLD-Plná
 62
     7
370
    25
100
AcDbLine
 10
7591.7050887006
 20
4765.1791576293
 30
0.0
 11
7421.2050887006
 21
4765.1791576293
 31
0.0
  0
LINE
  5
274
330
1F
100
AcDbEntity
  8
0
  6
SLD-Plná
 62
     7
370
    25
100
AcDbLine
 10
7591.7050887006
 20
4765.1791576293
 30
0.0
 11
7591.7050887006
 21
4608.1791576293
 31
0.0
  0
LINE
  5
275
330
1F
100
AcDbEntity
  8
0
  6
SLD-Plná
 62
     7
370
    25
100
AcDbLine
 10
7420.7050887006
 20
4766.6791576293
 30
0.0
 11
7420.7050887006
 21
4807.6291576293
 31
0.0
  0
ARC
  5
276
330
1F
100
AcDbEntity
  8
0
  6
SLD-Plná
 62
     7
370
    25
100
AcDbCircle
 10
7419.2050887006
 20
4807.6291576293
 30
0.0
 40
1.5
100
AcDbArc
 50
0.0
 51
86.3542660435
  0
LINE
  5
277
330
1F
100
AcDbEntity
  8
0
  6
SLD-Plná
 62
     7
370
    25
100
AcDbLine
 10
7419.2759584065
 20
4808.1291576293
 30
0.0
 11
7419.3050887006
 21
4808.1291576293
 31
0.0
  0
ARC
  5
278
330
1F
100
AcDbEntity
  8
0
  6
SLD-Plná
 62
     7
370
    25
100
AcDbCircle
 10
7419.3050887006
 20
4807.7291576293
 30
0.0
 40
0.3999999999996362
100
AcDbArc
 50
0.0
 51
90.0
  0
LINE
  5
279
330
1F
100
AcDbEntity
  8
0
  6
SLD-Plná
 62
     7
370
    25
100
AcDbLine
 10
7420.7050887006
 20
4766.6791576293
 30
0.0
 11
7419.7050887006
 21
4766.6791576293
 31
0.0
  0
LINE
  5
27A
330
1F
100
AcDbEntity
  8
0
  6
SLD-Plná
 62
     7
370
    25
100
AcDbLine
 10
7419.7050887006
 20
4807.7291576293
 30
0.0
 11
7419.7050887006
 21
4766.6791576293
 31
0.0
  0
ARC
  5
27B
330
1F
100
AcDbEntity
  8
0
  6
SLD-Plná
 62
     7
370
    25
100
AcDbCircle
 10
7419.395850098
 20
4807.6291576293
 30
0.0
 40
1.500000000000227
100
AcDbArc
 50
93.6457339565
 51
186.8427734126
  0
LINE
  5
27C
330
1F
100
AcDbEntity
  8
0
  6
SLD-Plná
 62
     7
370
    25
100
AcDbLine
 10
7417.9065348403
 20
4807.4504397983
 30
0.0
 11
7418.6050887006
 21
4801.6291576293
 31
0.0
  0
LINE
  5
27D
330
1F
100
AcDbEntity
  8
0
  6
SLD-Plná
 62
     7
370
    25
100
AcDbLine
 10
7418.6050887006
 20
4801.6291576293
 30
0.0
 11
7419.6050887006
 21
4801.6291576293
 31
0.0
  0
LINE
  5
27E
330
1F
100
AcDbEntity
  8
0
  6
SLD-Plná
 62
     7
370
    25
100
AcDbLine
 10
7419.6050887006
 20
4801.6291576293
 30
0.0
 11
7418.8788076712
 21
4807.681499541
 31
0.0
  0
ARC
  5
27F
330
1F
100
AcDbEntity
  8
0
  6
SLD-Plná
 62
     7
370
    25
100
AcDbCircle
 10
7419.2759584065
 20
4807.7291576293
 30
0.0
 40
0.3999999999997426
100
AcDbArc
 50
90.0
 51
186.8427734127
  0
LINE
  5
280
330
1F
100
AcDbEntity
  8
0
  6
SLD-Plná
 62
     7
370
    25
100
AcDbLine
 10
7420.7050887006
 20
4766.6791576293
 30
0.0
 11
7591.7050887006
 21
4766.6791576293
 31
0.0
  0
LINE
  5
281
330
1F
100
AcDbEntity
  8
0
  6
SLD-Plná
 62
     7
370
    25
100
AcDbLine
 10
7591.7050887006
 20
4765.1791576293
 30
0.0
 11
7591.7050887006
 21
4766.6791576293
 31
0.0
  0
LINE
  5
282
330
1F
100
AcDbEntity
  8
0
  6
SLD-Plná
 62
     7
370
    25
100
AcDbLine
 10
7419.7050887006
 20
4766.6791576293
 30
0.0
 11
7421.2050887006
 21
4765.1791576293
 31
0.0
  0
LINE
  5
283
330
1F
100
AcDbEntity
  8
0
  6
SLD-Plná
 62
     7
370
    25
100
AcDbLine
 10
7419.7050887006
 20
4606.6791576293
 30
0.0
 11
7419.7050887006
 21
4766.6791576293
 31
0.0
  0
LINE
  5
284
330
1F
100
AcDbEntity
  8
0
  6
SLD-Plná
 62
     7
370
    25
100
AcDbLine
 10
7765.2050887006
 20
4606.6791576293
 30
0.0
 11
7591.7050887006
 21
4606.6791576293
 31
0.0
  0
LINE
  5
285
330
1F
100
AcDbEntity
  8
0
  6
SLD-Plná
 62
     7
370
    25
100
AcDbLine
 10
7591.7050887006
 20
4766.6791576293
 30
0.0
 11
7765.2050887006
 21
4766.6791576293
 31
0.0
  0
ARC
  5
286
330
1F
100
AcDbEntity
  8
0
  6
SLD-Plná
 62
     7
370
    25
100
AcDbCircle
 10
7422.2050887006
 20
4768.1791576293
 30
0.0
 40
1.5
100
AcDbArc
 50
180.0
 51
270.0
  0
LINE
  5
287
330
1F
100
AcDbEntity
  8
0
  6
SLD-Plná
 62
     8
370
    25
100
AcDbLine
 10
7493.3004444197
 20
4999.1791576293
 30
0.0
 11
7483.3004444197
 21
4999.1791576293
 31
0.0
  0
LWPOLYLINE
  5
288
330
1F
100
AcDbEntity
  8
0
  6
SLD-Plná
 62
     8
370
    25
100
AcDbPolyline
 90
       10
 70
   128
 43
0.0
 10
7531.8795519295
 20
5009.469399188
 10
7532.9561535931
 20
5009.53462826
 10
7534.1983606995
 20
5009.7254777339
 10
7535.5140444302
 20
5010.0277931775
 10
7536.8056265419
 20
5010.4191532372
 10
7537.9773162978
 20
5010.8705325278
 10
7538.942214829
 20
5011.3484543123
 10
7539.6287600254
 20
5011.8174733181
 10
7539.9860339706
 20
5012.2428045514
 10
7540.0212913383
 20
5012.5128090469
  0
LWPOLYLINE
  5
289
330
1F
100
AcDbEntity
  8
0
  6
SLD-Plná
 62
     8
370
    25
100
AcDbPolyline
 90
        4
 70
   128
 43
0.0
 10
7530.3574613473
 20
5009.9417806131
 10
7530.5243473548
 20
5009.7254777339
 10
7531.0484023288
 20
5009.53462826
 10
7531.8795519295
 20
5009.469399188
  0
LWPOLYLINE
  5
28A
330
1F
100
AcDbEntity
  8
0
  6
SLD-Plná
 62
     8
370
    25
100
AcDbPolyline
 90
       24
 70
   128
 43
0.0
 10
7480.5946978299
 20
4825.4964168081
 10
7480.9790625787
 20
4825.3837098046
 10
7481.3977008269
 20
4825.1315837873
 10
7481.4661968175
 20
4824.8200415616
 10
7481.1825800456
 20
4824.4580456299
 10
7480.5550096495
 20
4824.0560099563
 10
7479.6015396867
 20
4823.6255003751
 10
7478.3495997521
 20
4823.178901863
 10
7476.8352058783
 20
4822.7290622462
 10
7475.1019244196
 20
4822.2889225914
 10
7473.199618728
 20
4821.8711449151
 10
7471.1830146747
 20
4821.4877479204
 10
7469.1101262866
 20
4821.1497612409
 10
7467.0405867885
 20
4820.8669081378
 10
7465.0339330639
 20
4820.64732578
 10
7463.1478928869
 20
4820.4973311522
 10
7461.4367241994
 20
4820.4212393266
 10
7459.9496542092
 20
4820.4212393266
 10
7458.7294632122
 20
4820.4973311522
 10
7457.8112538819
 20
4820.64732578
 10
7457.221441429
 20
4820.8669081378
 10
7456.9769936838
 20
4821.1497612409
 10
7457.0849429629
 20
4821.4877479204
 10
7457.1677582338
 20
4821.5806625798
  0
LWPOLYLINE
  5
28B
330
1F
100
AcDbEntity
  8
0
  6
SLD-Plná
 62
     8
370
    25
100
AcDbPolyline
 90
       21
 70
   128
 43
0.0
 10
7482.2098066343
 20
4824.1738678319
 10
7482.209881274
 20
4824.0556099427
 10
7481.9720848802
 20
4823.6928645494
 10
7481.3904094397
 20
4823.2885955403
 10
7480.4807215423
 20
4822.8538303201
 10
7479.2678351023
 20
4822.4004281507
 10
7477.7848345002
 20
4821.9407566613
 10
7476.0721721264
 20
4821.4873544919
 10
7474.176564946
 20
4821.0525892717
 10
7472.1497201814
 20
4820.6483202626
 10
7470.046924874
 20
4820.2855748693
 10
7467.9255377984
 20
4819.9742478406
 10
7465.8434248639
 20
4819.7228313661
 10
7463.8573806837
 20
4819.538183432
 10
7462.0215793658
 20
4819.4253407525
 10
7460.3860967846
 20
4819.3873813818
 10
7458.9955446415
 20
4819.4253407525
 10
7457.8878535741
 20
4819.538183432
 10
7457.0932385072
 20
4819.7228313661
 10
7456.6333744683
 20
4819.9742478406
 10
7456.5189088637
 20
4820.1783446546
  0
SPLINE
  5
28C
330
1F
100
AcDbEntity
  8
0
  6
SLD-Plná
 62
     8
370
    25
100
AcDbSpline
210
0.0
220
0.0
230
1.0
 70
     8
 71
     3
 72
    10
 73
     6
 74
     0
 42
0.00000001
 43
0.00000001
 40
0.0
 40
0.0
 40
0.0
 40
0.0
 40
0.3774686112434397
 40
0.5989380631029679
 40
1.0
 40
1.0
 40
1.0
 40
1.0
 10
7496.560608151312
 20
4803.670231609407
 30
0.0
 10
7496.559822702964
 20
4803.670251624901
 30
0.0
 10
7496.558576414138
 20
4803.670283383942
 30
0.0
 10
7496.110262135987
 20
4803.669635974567
 30
0.0
 10
7495.670289697603
 20
4803.669218894368
 30
0.0
 10
7495.386840217775
 20
4803.668950193069
 30
0.0
  0
LWPOLYLINE
  5
28D
330
1F
100
AcDbEntity
  8
0
  6
SLD-Plná
 62
     8
370
    25
100
AcDbPolyline
 90
        3
 70
   128
 43
0.0
 10
7483.3004444197
 20
4822.5783584532
 10
7482.8090201972
 20
4822.814788184
 10
7482.4011507295
 20
4822.9409412668
  0
LINE
  5
28E
330
1F
100
AcDbEntity
  8
0
  6
SLD-Plná
 62
     8
370
    25
100
AcDbLine
 10
7483.3004444197
 20
4820.7199066951
 30
0.0
 11
7482.8821920769
 21
4819.8370524056
 31
0.0
  0
LINE
  5
28F
330
1F
100
AcDbEntity
  8
0
  6
SLD-Plná
 62
     8
370
    25
100
AcDbLine
 10
7502.3297979968
 20
4827.5080882071
 30
0.0
 11
7493.3004444197
 21
4827.5080882071
 31
0.0
  0
SPLINE
  5
290
330
1F
100
AcDbEntity
  8
0
  6
SLD-Plná
 62
     8
370
    25
100
AcDbSpline
210
0.0
220
0.0
230
1.0
 70
     8
 71
     3
 72
    10
 73
     6
 74
     0
 42
0.00000001
 43
0.00000001
 40
0.0
 40
0.0
 40
0.0
 40
0.0
 40
0.3622871926076991
 40
0.9323564236974095
 40
1.0
 40
1.0
 40
1.0
 40
1.0
 10
7495.543412389005
 20
4812.291670120242
 30
0.0
 10
7496.363589096872
 20
4814.129244577528
 30
0.0
 10
7498.474337248472
 20
4818.858294856512
 30
0.0
 10
7500.735522884022
 20
4823.930429679423
 30
0.0
 10
7502.176907241541
 20
4827.164991265998
 30
0.0
 10
7502.329797996814
 20
4827.508088207052
 30
0.0
  0
LINE
  5
291
330
1F
100
AcDbEntity
  8
0
  6
SLD-Plná
 62
     8
370
    25
100
AcDbLine
 10
7493.3004444197
 20
4828.1983215892
 30
0.0
 11
7502.2212211157
 21
4828.1983215892
 31
0.0
  0
LINE
  5
292
330
1F
100
AcDbEntity
  8
0
  6
SLD-Plná
 62
     8
370
    25
100
AcDbLine
 10
7500.310652173
 20
4829.9259681769
 30
0.0
 11
7493.3004444197
 21
4829.9259681769
 31
0.0
  0
ARC
  5
293
330
1F
100
AcDbEntity
  8
0
  6
SLD-Plná
 62
     8
370
    25
100
AcDbCircle
 10
7500.1152512001
 20
4829.7208113419
 30
0.0
 40
0.2833211378638429
100
AcDbArc
 50
46.395202445
 51
88.8563061529
  0
ARC
  5
294
330
1F
100
AcDbEntity
  8
0
  6
SLD-Plná
 62
     8
370
    25
100
AcDbCircle
 10
7502.3582801592
 20
4827.6643948664
 30
0.0
 40
0.1588804749841807
100
AcDbArc
 50
259.6728824882
 51
324.8476335454
  0
ARC
  5
295
330
1F
100
AcDbEntity
  8
0
  6
SLD-Plná
 62
     8
370
    25
100
AcDbCircle
 10
7502.2292397231
 20
4827.9879656469
 30
0.0
 40
0.2105087183656968
100
AcDbArc
 50
49.1509053746
 51
92.1830142755
  0
ARC
  5
296
330
1F
100
AcDbEntity
  8
0
  6
SLD-Plná
 62
     8
370
    25
100
AcDbCircle
 10
7500.3186799314
 20
4829.715591401
 30
0.0
 40
0.2105298856610171
100
AcDbArc
 50
49.2910391137
 51
92.1852869299
  0
LINE
  5
297
330
1F
100
AcDbEntity
  8
0
  6
SLD-Plná
 62
     8
370
    25
100
AcDbLine
 10
7591.7050887006
 20
4608.1791576293
 30
0.0
 11
7766.7050887006
 21
4608.1791576293
 31
0.0
  0
LINE
  5
298
330
1F
100
AcDbEntity
  8
0
  6
SLD-Plná
 62
     8
370
    25
100
AcDbLine
 10
7766.7050887006
 20
4765.1791576293
 30
0.0
 11
7591.7050887006
 21
4765.1791576293
 31
0.0
  0
ENDSEC
  0
SECTION
  2
OBJECTS
  0
DICTIONARY
  5
C
330
0
100
AcDbDictionary
281
     1
  3
ACAD_GROUP
350
D
  3
ACAD_LAYOUT
350
1A
  3
ACAD_MLINESTYLE
350
17
  3
ACAD_PLOTSETTINGS
350
19
  3
ACAD_PLOTSTYLENAME
350
E
  3
ACAD_SCALELIST
350
47
  3
DWGPROPS
350
299
  0
DICTIONARY
  5
D
102
{ACAD_REACTORS
330
C
102
}
330
C
100
AcDbDictionary
281
     1
  0
DICTIONARY
  5
1A
102
{ACAD_REACTORS
330
C
102
}
330
C
100
AcDbDictionary
281
     1
  3
Layout1
350
1E
  3
Layout2
350
26
  3
Model
350
22
  0
DICTIONARY
  5
17
102
{ACAD_REACTORS
330
C
102
}
330
C
100
AcDbDictionary
281
     1
  3
Standard
350
18
  0
DICTIONARY
  5
19
102
{ACAD_REACTORS
330
C
102
}
330
C
100
AcDbDictionary
281
     1
  0
ACDBDICTIONARYWDFLT
  5
E
102
{ACAD_REACTORS
330
C
102
}
330
C
100
AcDbDictionary
281
     1
  3
Normal
350
F
100
AcDbDictionaryWithDefault
340
F
  0
DICTIONARY
  5
47
102
{ACAD_REACTORS
330
C
102
}
330
C
100
AcDbDictionary
281
     1
  3
A0
350
48
  3
A1
350
49
  3
A2
350
4A
  3
A3
350
4B
  3
A4
350
4C
  3
A5
350
4D
  3
A6
350
4E
  3
A7
350
4F
  3
A8
350
50
  3
A9
350
51
  3
B0
350
52
  3
B1
350
53
  3
B2
350
54
  3
B3
350
55
  3
B4
350
56
  3
B5
350
57
  3
B6
350
58
  3
B7
350
59
  3
B8
350
5A
  3
B9
350
5B
  3
C0
350
5C
  3
C1
350
5D
  3
C2
350
5E
  3
C3
350
5F
  3
C4
350
60
  3
C5
350
61
  3
C6
350
62
  3
C7
350
63
  3
C8
350
64
  3
C9
350
65
  3
D0
350
66
  3
D1
350
67
  3
D2
350
68
  0
XRECORD
  5
299
102
{ACAD_REACTORS
330
C
102
}
330
C
100
AcDbXrecord
280
     1
  1
DWGPROPS COOKIE
  2

  3

  4

  6

  7

  8
radek.stransky
  9

300
=
301
=
302
=
303
=
304
=
305
=
306
=
307
=
308
=
309
=
 40
0.0
 41
2460963.370454838
 42
2460963.370455775
  1

 90
        0
  0
LAYOUT
  5
1E
102
{ACAD_REACTORS
330
1A
102
}
330
1A
100
AcDbPlotSettings
  1

  2
none_device
  4

  6

 40
0.0
 41
0.0
 42
0.0
 43
0.0
 44
0.0
 45
0.0
 46
0.0
 47
0.0
 48
0.0
 49
0.0
140
0.0
141
0.0
142
1.0
143
1.0
 70
   688
 72
     1
 73
     0
 74
     5
  7

 75
    16
147
1.0
148
0.0
149
0.0
100
AcDbLayout
  1
Layout1
 70
     1
 71
     1
 10
0.0
 20
0.0
 11
420.0
 21
297.0
 12
0.0
 22
0.0
 32
0.0
 14
1.0000000000E+20
 24
1.0000000000E+20
 34
1.0000000000E+20
 15
-1.0000000000E+20
 25
-1.0000000000E+20
 35
-1.0000000000E+20
146
0.0
 13
0.0
 23
0.0
 33
0.0
 16
1.0
 26
0.0
 36
0.0
 17
0.0
 27
1.0
 37
0.0
 76
     0
330
1B
  0
LAYOUT
  5
26
102
{ACAD_REACTORS
330
1A
102
}
330
1A
100
AcDbPlotSettings
  1

  2
none_device
  4

  6

 40
0.0
 41
0.0
 42
0.0
 43
0.0
 44
0.0
 45
0.0
 46
0.0
 47
0.0
 48
0.0
 49
0.0
140
0.0
141
0.0
142
1.0
143
1.0
 70
   688
 72
     1
 73
     0
 74
     5
  7

 75
    16
147
1.0
148
0.0
149
0.0
100
AcDbLayout
  1
Layout2
 70
     1
 71
     2
 10
0.0
 20
0.0
 11
0.0
 21
0.0
 12
0.0
 22
0.0
 32
0.0
 14
0.0
 24
0.0
 34
0.0
 15
0.0
 25
0.0
 35
0.0
146
0.0
 13
0.0
 23
0.0
 33
0.0
 16
1.0
 26
0.0
 36
0.0
 17
0.0
 27
1.0
 37
0.0
 76
     0
330
23
  0
LAYOUT
  5
22
102
{ACAD_REACTORS
330
1A
102
}
330
1A
100
AcDbPlotSettings
  1

  2
none_device
  4
Letter_(8.50_x_11.00_Inches)
  6

 40
6.35
 41
6.35
 42
6.35000508
 43
6.35000508
 44
215.9
 45
279.4
 46
0.0
 47
0.0
 48
0.0
 49
0.0
140
0.0
141
0.0
142
1.0
143
1.0
 70
  1712
 72
     1
 73
     0
 74
     0
  7

 75
     0
147
1.0
148
0.0
149
0.0
100
AcDbLayout
  1
Model
 70
     1
 71
     0
 10
0.0
 20
0.0
 11
20000.0
 21
10000.0
 12
0.0
 22
0.0
 32
0.0
 14
0.0
 24
0.0
 34
0.0
 15
20000.0
 25
10000.0
 35
0.0
146
0.0
 13
0.0
 23
0.0
 33
0.0
 16
1.0
 26
0.0
 36
0.0
 17
0.0
 27
1.0
 37
0.0
 76
     0
330
1F
331
29
  0
MLINESTYLE
  5
18
102
{ACAD_REACTORS
330
17
102
}
330
17
100
AcDbMlineStyle
  2
Standard
 70
     0
  3

 62
   256
 51
90.0
 52
90.0
 71
     2
 49
0.5
 62
   256
  6
BYLAYER
 49
-0.5
 62
   256
  6
BYLAYER
  0
ACDBPLACEHOLDER
  5
F
102
{ACAD_REACTORS
330
E
102
}
330
E
  0
SCALE
  5
48
102
{ACAD_REACTORS
330
47
102
}
330
47
100
AcDbScale
 70
     0
300
1:1
140
1.0
141
1.0
290
     1
  0
SCALE
  5
49
102
{ACAD_REACTORS
330
47
102
}
330
47
100
AcDbScale
 70
     0
300
1:2
140
1.0
141
2.0
290
     0
  0
SCALE
  5
4A
102
{ACAD_REACTORS
330
47
102
}
330
47
100
AcDbScale
 70
     0
300
1:4
140
1.0
141
4.0
290
     0
  0
SCALE
  5
4B
102
{ACAD_REACTORS
330
47
102
}
330
47
100
AcDbScale
 70
     0
300
1:5
140
1.0
141
5.0
290
     0
  0
SCALE
  5
4C
102
{ACAD_REACTORS
330
47
102
}
330
47
100
AcDbScale
 70
     0
300
1:8
140
1.0
141
8.0
290
     0
  0
SCALE
  5
4D
102
{ACAD_REACTORS
330
47
102
}
330
47
100
AcDbScale
 70
     0
300
1:10
140
1.0
141
10.0
290
     0
  0
SCALE
  5
4E
102
{ACAD_REACTORS
330
47
102
}
330
47
100
AcDbScale
 70
     0
300
1:16
140
1.0
141
16.0
290
     0
  0
SCALE
  5
4F
102
{ACAD_REACTORS
330
47
102
}
330
47
100
AcDbScale
 70
     0
300
1:20
140
1.0
141
20.0
290
     0
  0
SCALE
  5
50
102
{ACAD_REACTORS
330
47
102
}
330
47
100
AcDbScale
 70
     0
300
1:30
140
1.0
141
30.0
290
     0
  0
SCALE
  5
51
102
{ACAD_REACTORS
330
47
102
}
330
47
100
AcDbScale
 70
     0
300
1:40
140
1.0
141
40.0
290
     0
  0
SCALE
  5
52
102
{ACAD_REACTORS
330
47
102
}
330
47
100
AcDbScale
 70
     0
300
1:50
140
1.0
141
50.0
290
     0
  0
SCALE
  5
53
102
{ACAD_REACTORS
330
47
102
}
330
47
100
AcDbScale
 70
     0
300
1:100
140
1.0
141
100.0
290
     0
  0
SCALE
  5
54
102
{ACAD_REACTORS
330
47
102
}
330
47
100
AcDbScale
 70
     0
300
2:1
140
2.0
141
1.0
290
     0
  0
SCALE
  5
55
102
{ACAD_REACTORS
330
47
102
}
330
47
100
AcDbScale
 70
     0
300
4:1
140
4.0
141
1.0
290
     0
  0
SCALE
  5
56
102
{ACAD_REACTORS
330
47
102
}
330
47
100
AcDbScale
 70
     0
300
8:1
140
8.0
141
1.0
290
     0
  0
SCALE
  5
57
102
{ACAD_REACTORS
330
47
102
}
330
47
100
AcDbScale
 70
     0
300
10:1
140
10.0
141
1.0
290
     0
  0
SCALE
  5
58
102
{ACAD_REACTORS
330
47
102
}
330
47
100
AcDbScale
 70
     0
300
100:1
140
100.0
141
1.0
290
     0
  0
SCALE
  5
59
102
{ACAD_REACTORS
330
47
102
}
330
47
100
AcDbScale
 70
     0
300
1/128" = 1'-0"
140
0.0078125
141
12.0
290
     0
  0
SCALE
  5
5A
102
{ACAD_REACTORS
330
47
102
}
330
47
100
AcDbScale
 70
     0
300
1/64" = 1'-0"
140
0.015625
141
12.0
290
     0
  0
SCALE
  5
5B
102
{ACAD_REACTORS
330
47
102
}
330
47
100
AcDbScale
 70
     0
300
1/32" = 1'-0"
140
0.03125
141
12.0
290
     0
  0
SCALE
  5
5C
102
{ACAD_REACTORS
330
47
102
}
330
47
100
AcDbScale
 70
     0
300
1/16" = 1'-0"
140
0.0625
141
12.0
290
     0
  0
SCALE
  5
5D
102
{ACAD_REACTORS
330
47
102
}
330
47
100
AcDbScale
 70
     0
300
3/32" = 1'-0"
140
0.09375
141
12.0
290
     0
  0
SCALE
  5
5E
102
{ACAD_REACTORS
330
47
102
}
330
47
100
AcDbScale
 70
     0
300
1/8" = 1'-0"
140
0.125
141
12.0
290
     0
  0
SCALE
  5
5F
102
{ACAD_REACTORS
330
47
102
}
330
47
100
AcDbScale
 70
     0
300
3/16" = 1'-0"
140
0.1875
141
12.0
290
     0
  0
SCALE
  5
60
102
{ACAD_REACTORS
330
47
102
}
330
47
100
AcDbScale
 70
     0
300
1/4" = 1'-0"
140
0.25
141
12.0
290
     0
  0
SCALE
  5
61
102
{ACAD_REACTORS
330
47
102
}
330
47
100
AcDbScale
 70
     0
300
3/8" = 1'-0"
140
0.375
141
12.0
290
     0
  0
SCALE
  5
62
102
{ACAD_REACTORS
330
47
102
}
330
47
100
AcDbScale
 70
     0
300
1/2" = 1'-0"
140
0.5
141
12.0
290
     0
  0
SCALE
  5
63
102
{ACAD_REACTORS
330
47
102
}
330
47
100
AcDbScale
 70
     0
300
3/4" = 1'-0"
140
0.75
141
12.0
290
     0
  0
SCALE
  5
64
102
{ACAD_REACTORS
330
47
102
}
330
47
100
AcDbScale
 70
     0
300
1" = 1'-0"
140
1.0
141
12.0
290
     0
  0
SCALE
  5
65
102
{ACAD_REACTORS
330
47
102
}
330
47
100
AcDbScale
 70
     0
300
1-1/2" = 1'-0"
140
1.5
141
12.0
290
     0
  0
SCALE
  5
66
102
{ACAD_REACTORS
330
47
102
}
330
47
100
AcDbScale
 70
     0
300
3" = 1'-0"
140
3.0
141
12.0
290
     0
  0
SCALE
  5
67
102
{ACAD_REACTORS
330
47
102
}
330
47
100
AcDbScale
 70
     0
300
6" = 1'-0"
140
6.0
141
12.0
290
     0
  0
SCALE
  5
68
102
{ACAD_REACTORS
330
47
102
}
330
47
100
AcDbScale
 70
     0
300
1'-0" = 1'-0"
140
12.0
141
12.0
290
     0
  0
ENDSEC
  0
EOF
